Ads

Corridors of Time (Chrono Trigger) Guitar Tab

Submitted: May 18, 2013 by ChelseaRare

5
Average: 5 (11 votes)
Download | Listen
Game: Chrono Trigger
Composer(s): Nobuo Uematsu, Yasunori Mitsuda, Noriko Matsueda
Style: Arrangement, Fingerstyle
Series: Chrono

This song is also called Zeal

AutoScroll: Slow | Medium | Fast
Chrono Trigger
Corridors of Time (Zeal)
Composer: Yasunori Mitsuda
Arranger: Chelsea Intal
5/17/13

Open Dsus4 tuning - DADGAD



     E  E  E  E  E  E  E  E     E  E  E  E  E  E  E  E   
D||--------------4-----------|--------------4-----------|
A||-----------4-----------4--|--7--------4-----------4--|
G||--------4-----------4-----|--------4-----------4-----|
D||--0--4-----------4-----0--|-----4-----------4-----0--|
A||--------------------0-----|--------------------0-----|
D||--0--------0--------------|--0--------0--------------|


  E  E  E  E  E  E  E  E     E  E  E  E  E  E  E  E   
--------------4-----------|--------------4-----------|
-----------4-----------4--|--7--------4-----------4--|
--------4-----------4-----|--------4-----------4-----|
-----4-----------4-----4--|-----4-----------4--------|
--4-----------------4-----|--------------------------|
--4--------4--------------|--4--------4--------2-----|


  E  E  E  E  E  E  E  E     E  E  E  E  E  E  E  E   
--0-----------4-----------|--------------4-----------|
-----------4-----------4--|--7--------4-----------4--|
--------4-----------4-----|--------4-----------4-----|
--0--4-----------4-----0--|-----4-----------4-----0--|
--------------------0-----|--------------------0-----|
--0--------0--------------|--0--------0--------------|


  E  E  E  E  E  E  E  E     E  E  E  E  E  E  E  E   
--------------4-----------|--------------------------|
--7--------4-----------4--|--7--------4-----------4--|
--------4-----------4-----|--------4-----------4-----|
-----4-----------4-----4--|-----4--------7--4--------|
--4-----------------4-----|-----------------------4--|
--4--------4--------------|--4--------4--------2-----|


    E  S S E  E  E  E  E  E     E  E  E  S S E.  S E  S S  
|----------------4-----------|----------------------------|
|-------------4-----------4--|--7--------4------------4---|
|*---------4-----------4-----|--------4----------4--------|
|*--6----6----4--4--4-----0--|-----4-----4-6-7--------7-6-|
|------5---------------0-----|---------------------0------|
|---0---------0--------------|--0--------0----------------|


  E  S S E  E  E  E  E  E     E  E  E  E  E  E  E  E     
---------------4-----------|--------------2------------||
------------4-----------4--|--6--------4-----------4---||
---------4-----------4-----|--------4-----------------*||
--4----4----------4-----4--|-----4-----------4--6-----*||
-----4------7--7-----4-----|-----------------------4---||
--4---------4--------------|--4--------4--------6------||


  E  E  E  E  E  S S E  E     E  S E.  E  E  E  E  E   
--------------4------------|--------------4-----------|
--7--------4------------4--|-------4---4-----------4--|
--------4------------4--4--|--4-----------------4-----|
-----4-----4--6--4-7-------|-----4-----4-----4-----4--|
---------------------------|--4-----------------4-----|
--0--------0---------------|--4--------4--------------|


  E  E  E  E  E  S S E  E     E  E  E  E  E  E  E  E   
---------------------------|--------------4-----------|
--7--------4--7----4----0--|-----------4-----------4--|
--------4------------------|--------4-----------4-----|
-----4-----------4------4--|--0--4-----------4-----0--|
--4------------------4-----|--------------------0-----|
--4--------4---------------|--0--------0--------------|


  E  E  E  E  E  E  E  E     E  S S E  E  E  E  E  E   
--------------------------|---------------4-----------|
--7--------0--------4-----|-------4----4-----------4--|
--------4-----------------|--4------4-----------4-----|
-----4--------4--------0--|-----4------6-----4--4--2--|
-----------------5--0-----|--4------------------4-----|
--0--------0--------------|--4---------4--------------|


  E  E  E  E  E  E  E  E     E  E  E  E  E  E  E  E   
--------------4-----------|--------------------------|
--7--------4-----------4--|-----------4-----------0--|
--------4-----------4-----|--------------------------|
-----4-----------4-----2--|--4-----0--2--4--0--6--0--|
--------------------------|-----0--------------0-----|
--4--------4--------2-----|--0--------0--------------|


  E  E  E  E  E  S S E  E     E  E  E  E  E  E  E  E   
---------------------------|--------------4-----------|
-------------------0-------|-----------4-----------4--|
--1-----------1------4--1--|--------4-----------4-----|
--------2--4-----4------2--|--6--4-----------4-----4--|
-----2---------------2-----|--4-----------------4-----|
--2--------2---------------|--4--------4--------------|


  E  E  E  E  E  E  E  E     E  E  E  E  E  E  E  E   
--------------4-----------|--------------4-----------|
--7--------4-----------4--|-----------4-----------4--|
--------4-----------4-----|--------4-----------4-----|
--4--4-----------4--------|--4--4-----------4-----0--|
--------------------------|--4-----------------0-----|
--4--------4--------2-----|--0--------0--------------|


    E  E  E  E  E  E  E  E     E  E  E  E  E  E  E  E   
|---------------2-----------|--6-----------4-----------|
|------------4-----------4--|--7--------4-----------4--|
|*--4-----4-----4-----4-----|--------4-----------4-----|
|*--4--4-----------4-----0--|-----4-----------4-----4--|
|---------------------0-----|--------------------4-----|
|---0--------0--------------|--4--------4--------------|


  E  E  E  E  E  E  E  E     E  E  E  E  E  E  E  E   
--7-----------6-----2-----|--------------4-----------|
-----------4-----------4--|-----------4-----------4--|
--------4-----------4-----|--6-----4-----------4-----|
-----4-----------4--------|--7--4-----------4-----0--|
--------------------------|--------------------0-----|
--4--------4--------2-----|--0--------0--------------|


  E  E  E  E  E  E  E  E     E  E  E  E  E  E  E  E   
--------------4-----2-----|--------------------------|
--7--------4--------2--4--|-----------4--0--------4--|
--------4-----4-----4-----|--6-----4-----------4-----|
-----4--------4--4-----0--|-----4--------4--4-----4--|
--------------------0-----|--4-----------------4-----|
--0--------0--------------|--4--------4--------------|


  E  E  E  E  E  E  E  E     E  E  E  E  E  E  E  E     
--------------4-----------|--------------4------------||
-----------4--------------|-----------4-----------4---||
--------4-----------------|--------4-----------4-----*||
--6--4--------4--4--2--4--|-----4-----------4-----0--*||
--7-----------4-----4--5--|--------------------0------||
--4--------4--------2-----|--0--------0---------------||


  E  E  E  E  E  E  E  E     E  E  E  E  E  E  E  E   
--------------4-----------|--------------------------|
--0--------4-----------4--|--7--------4--7--------4--|
--6-----4-----------4-----|--------4-----------4-----|
--0--4-----------4-----0--|-----4--------6--4-----0--|
--------------------0-----|--------------------0-----|
--0--------0--------------|--0--------0--------------|


  E  E  E  E  E  E  E  E     E  E  E  E  E  E  E  E     Q.     Q.     E  E   
--4-----------4-----------|--------------4-----------|----------------------|
--0--------4-----------4--|--7--------4-----------4--|----------------------|
--------4-----------4-----|--------4-----------4-----|----------------------|
-----4-----------4-----4--|-----4-----------4--------|--4----------------0--|
--4-----------------4-----|--------------------------|----------------0-----|
--4--------4--------------|--4--------4--------2-----|--0------0------------|


  Q.     Q.     E  E     Q.     Q.     E  E     Q.     Q.     Q     
----------------------|----------------------|---------------------|
----------------------|----------------------|---------------------|
----------------------|----------------------|---------------------|
-------------------0--|-------------------4--|---------------------|
----------------0-----|----------------4-----|---------------------|
--0------0------------|--4------4------------|--4------4------2----|


  W                  
-------------------||
-------------------||
--6----------------||
--4----------------||
--4----------------||
--0----------------||




Duration Legend
---------------
W - whole
H - half
Q - quarter
E - 8th
S - 16th
T - 32nd
X - 64th
. - note dotted
|-n-|  - n-tuplets


Tablature Legend
----------------
L - tied note
Login or Register to remove this ad.

2 comments on Corridors of Time

Awesome

5

I really enjoy how you've woven together the melody of this song, It's an excellent arrangement.

Lovely! Thanks for making

5

Lovely! Thanks for making this!