Corridors of Time (Chrono Trigger) Guitar Tab

Submitted: Jan 27, 2011 by BacardiBreezer

3
Average: 3 (2 votes)
Download | Listen
Game: Chrono Trigger
Composer(s): Nobuo Uematsu, Yasunori Mitsuda, Noriko Matsueda
Style: Alternate picking, Transcription
Series: Chrono

This song is also called Chrono Corridor

AutoScroll: Slow | Medium | Fast
Corridors of Time
Chrono Trigger
COmposer: Yasunori Mitsuda
Tabbed by: Bacardibreezer
1/27/11

e |---------------------------------------------------------------|
B |--------------19-------------17-----------19-------------------|
G |--------16-18----------16-18--------16-18--------16-18---------|
D |-----16-------------16-----------16-----------16---------------|
A |--17-----------------------------------------------------------|
E |---------------------------------------------------------------|

e |--------------------------------------------------|
B |-----------------------------12-------------------|
G |------13-13-11-11---11-13-14------14-13-11-9-9----|
D |--11----------------------------------------------|
A |--------------------------------------------------|
E |--------------------------------------------------|

e |--------------------------------------------------|
B |------------------------------12-12--14-14--------|
G |------13-13-11-11---11-13-14----------------------|
D |--11----------------------------------------------|
A |--------------------------------------------------|
E |--------------------------------------------------|

e |------12---------------------------------------------|
B |--14------14-----------------14--12--14--------------|
G |--------------14-----14--11--------------13--11--9---|
D |-----------------------------------------------------|
A |-----------------------------------------------------|
E |-----------------------------------------------------|

e |--------------------------------------------------------|
B |------------------9---10-9---------9-10---9-9-----------|
G |--9-11-------9-11-------------9-11--------------11-11---|
D |----------12----------------9---------------------------|
A |-------12-----------------------------------------------|
E |--------------------------------------------------------|

e |----------16----17--16-----------------------------------------|
B |------17----------------17-14-------17-------------------------|
G |--16-----------------------------16----16--14--13--------------|
D |----------------------------------------------------16-14-16---|
A |---------------------------------------------------------------|
E |---------------------------------------------------------------|

e |----------16----17--16---------------14~----|
B |------17----------------17-14----17---------|
G |--16----------------------------------------|
D |--------------------------------------------|
A |--------------------------------------------|
E |--------------------------------------------|
Login or Register to remove this ad.