Ads

Boss Battle 2 (Chrono Trigger) Guitar Tab

Submitted: Mar 04, 2015 by JordanVS

5
Average: 5 (2 votes)
Download | Listen
Game: Chrono Trigger
Composer(s): Nobuo Uematsu, Yasunori Mitsuda, Noriko Matsueda
Style: Arrangement, Fingerstyle
Series: Chrono

AutoScroll: Slow | Medium | Fast
Boss Battle 2                                                       
Fanfare 3
Chrono Trigger
Yasunori Mitsuda                                                                                                 
JordanVS

-Tempo : 146 
-Triplet 8th Feel

                                 |--3--|                                         |--3--|               
      Q    Q    H           Q    E  E  E  H           Q    Q    H           Q    E  E  E  Q    Q      
E||--------5----3--------|-------------------------|---------------------|---------------------------||
B||--------5----4--------|--7----7--7--7--6--------|-------5----4--------|--3----3--3--3--2----2-----||
G||*-------5----3--------|--6----6--6--6--5--------|-------4----3--------|--2----2--2--2--3----3----*||
D||*---------------------|--8----8--8--8--7--------|-------6----5--------|--4----4--4--4--3----3----*||
A||---0---------3--------|--6-------------5--------|--4---------3--------|--2-------------1----------||
E||----------------------|-------------------------|---------------------|---------------------------||
      H		H	    H             H           H         H           H             H
*Segno
                               |--3--|              
  Q    E  E  Q.          E     E  E  E  H.                    Q    E  E  Q.     E  
----------------------------|------------------------------|----------------------------|
-------6--4--3--------------|------------------------------|-------6--4--3--------------|
-------------------------3--|--5---------------------------|-------------------------3--|
----------------------------|-----3------------------------|----------------------------|
----------------------------|--------6--5------------------|----------------------------|
--3----3--------3-----3-----|--3--------3-------3-----3----|--3----3--------3-----3-----|
  Q    Q     E  E  E  Q        Q        Q    E  E  E  Q       Q    Q     E  E  E  Q 
             |--3--|                         |--3--|                     |--3--| 


  |--3--|                 |--3--|                                  |--3--|               
  E  E  E  Q       E  E   E  E  E     Q    E  E  Q.          E     E  E  E  H.           
-----------6----I--L--4------------|----------------------------|------------------------------|
--------4-----------------8--6--4--|-------6--4--3--------------|------------------------------|
--5--7-----------------------------|-------------------------3--|--5---------------------------|
-----------------------------------|----------------------------|-----3------------------------|
-----------------------------------|----------------------------|--------6--5------------------|
--4--------4-------4------4--------|--3----3--------3-----3-----|--3--------3-------3-----3----|
  Q    Q         E  E  E  Q           Q    Q     E  E  E  Q        Q        Q    E  E  E  Q 
                 |--3--|                         |--3--|        
                 |--3--| 
                               |--3--|                 |--3--|          |--3--|           |--3--|
  Q    E  E  Q.          E     E  E  E  Q      E  E    E  E  E     Q    E  E  E  Q        E  E  E 
----------------------------|-----------6------L--4-------------|-------3-----3--------------------|
-------6--4--3--------------|--------4-----------------8--6--4--|----------6-----------------------|
-------------------------3--|--5--7-----------------------------|----------------5--------L--3--5--|
----------------------------|-----------------------------------|----------------------------------|
----------------------------|-----------------------------------|--4----4-----------4-----4--------|
--3----3--------3-----3-----|--4--------4-------4------4--------|----------------------------------|
  Q    Q     E  E  E  Q        Q        Q    E  E  E   Q           Q    Q        E  E  E  Q 
             |--3--|                         |--3--|                             |--3--| 

       |--3--|                        |--3--|                             
  Q    E  E  E  H                Q    E  E  E  Q.          E     H.           Q      
------------------------------|-------------------------------|--------------------------|
--4----4-----4--6-------------|-------4--3--4--3--------------|--------------------------|
----------5-------------------|----------------------------3--|--------------------------|
------------------------------|-------------------------------|--5-----------------------|
--4----4-----------4-----4----|--3----3-----------3-----3-----|--3----3-------3-----3----|
------------------------------|-------------------------------|--------------------------|
  Q    Q        E  E  E  Q       Q        Q    E  E  E  Q        Q    Q    E  E  E  Q 
                |--3--|                        |--3--|                     |--3--| 

                                                                  3/4
       |--3--|       |--3--|              |--3--|                          |--3--|          |--3--|  |--3--|          
  Q    E  E  E  Q    E  E  E         Q    E  E  E  H                  Q    E  E  E  Q       E  E  E  E  E  E  Q      4x
-------3-----3--------------------|------------------------------||----------------------|--------------------------||
----------6-----------------------|--4----4-----4--6-------------||----------------------|--------------------------||
----------------5--------L--3--5--|----------5-------------------||*-------0-----2--3----|--0-----2--3--2--1--0----*||
----------------------------------|------------------------------||*----------4----------|-----4-------------------*||
--4----4-----------4-----4--------|--4----4-----------4-----4----||-----------------1----|-----------1--------1-----||
----------------------------------|------------------------------||---3----3-------------|--3-----------------------||
  Q    Q        E  E  E  Q           Q    Q        E  E  E  Q         Q    Q        Q       Q        Q        Q
                |--3--|                            |--3--|                 
4/4

  |--3--|  |--3--|  |--3--|  |--3--|                                  |--3--|        
  E  E  E  E  E  E  E  E  E  E  E  E      Q   E  E  Q.          E     E  E  E  H.           
--------0-----------------------------|----------------------------|------------------------------|
--4--3-----2--1--4--1--0--2--0-----1--|-------3--1--0--------------|------------------------------|
--------------------------------3-----|-------------------------0--|--2---------------------------|
--1-----------------------------------|----------------------------|-----0------------------------|
-----------4--------3--------2--------|----------------------------|--------3--2------------------|
--------------------------------------|--0----0--------0-----0-----|--0--------0-------0-----0----|
  Q        Q        Q        Q           Q    Q     E  E  E  Q        Q        Q    E  E  E  Q        
           					    |--3--|                         |--3--|                 


                               |--3--|                 |--3--|                      
   Q   E  E  Q.          E     E  E  E  Q        E  E  E  E  E     Q    E  E  Q.     E   
----------------------------|-----------3--------L--1--0--------|----------------------------|
-------3--1--0--------------|-----0--1--------------------3--1--|-------3--1--0--------------|
-------------------------0--|--2--------------------------------|-------------------------0--|
----------------------------|-----------------------------------|----------------------------|
----------------------------|-----------------------------------|----------------------------|
--0----0--------0-----0-----|--1--------1-------1------1--------|--0----0--------0-----0-----|
  Q    Q     E  E  E  Q        Q        Q    E  E  E   Q           Q    Q     E  E  E  Q 
             |--3--|                         |--3--|                          |--3--| 

  |--3--|                                                     |--3--|                 |--3--|   
  E  E  E  H.                    Q    E  E  Q.     E          E  E  E  Q        E  E  E  E  E  
------------------------------|----------------------------|-----------3--------L--1--0--------|
------------------------------|-------3--1--0--------------|-----0--1--------------------3--1--|
--2---------------------------|-------------------------0--|--2--------------------------------|
-----0------------------------|----------------------------|-----------------------------------|
--------3--2------------------|----------------------------|-----------------------------------|
--0--------0-------0-----0----|--0----0--------0-----0-----|--1--------1-------1------1--------|
  Q        Q    E  E  E  Q       Q    Q     E  E  E  Q        Q        Q    E  E  E   Q 
                |--3--|                     |--3--|                         |--3--| 

       |--3--|       |--3--|              |--3--|                        |--3--|         
  Q    E  E  E  Q    E  E  E         Q    E  E  E  H                Q    E  E  E  Q.          E   
-------0-----0--------------------|------------------------------|-------------------------------|
----------3-----------------------|--1----1-----1--3-------------|-------1--0--1--0--------------|
----------------2--------L--0--2--|----------2-------------------|----------------------------0--|
----------------------------------|------------------------------|-------------------------------|
--1----1-----------1-----1--------|--1----1-----------1-----1----|--0----0-----------0-----0-----|
----------------------------------|------------------------------|-------------------------------|
  Q    Q        E  E  E  Q           Q    Q        E  E  E  Q       Q    Q        E  E  E  Q 
                |--3--|                            |--3--|                        |--3--| 

                            |--3--|       |--3--|          |--3--|              |--3--|  |--3--|        
  H.           Q       Q    E  E  E  Q    E  E  E     Q    E  E  E  H           E  E  E  E  E  E  Q     
--------------------------|-------0-----0--------------------|------------------------------|--0--1--3--5--3--1--0----|
--------------------------|----------3-----------------------|--1----1-----1--3-------------|-------------------------|
--------------------------|----------------2--------L--0--2--|----------2-------------------|-------------------------|
--2-----------------------|----------------------------------|------------------------------|-------------------------|
--0----0-------0-----0----|--1----1-----------1-----1--------|--1----1-----------1-----1----|--0--------0--------0----|
--------------------------|----------------------------------|------------------------------|-------------------------|
  Q    Q    E  E  E  Q       Q    Q        E  E  E  Q           Q    Q        E  E  E  Q       Q        Q        Q
            |--3--|                        |--3--|                            |--3--| 

  |--3--|  |--3--|          |--3--|       |--3--|  |--3--|     |--3--|       |--3--|  |--3--|   
  E  E  E  E  E  E  Q       E  E  E  Q    E  E  E  E  E  E     E  E  E  Q    E  E  E  E  E  E   
--------1--3--1-----------|----------------------------------|----------------------------------|
--3--4------------4--3----|-----3-----3-------3--3--3--3--3--|-----3-----3-------3--3--3--3--3--|
--------------------------|-----2-----2-------2--2--2--2--2--|-----2-----2-------2--2--2--2--2--|
--1--------1---------1----|-----5-----5-------5--5--5--5--5--|-----5-----5-------5--5--5--5--5--|
----------------1---------|--5--------5----5--------5--------|--5--------5----5--------5--------|
--------------------------|----------------------------------|----------------------------------|
  Q        E    E    Q       Q	      Q    Q        Q           Q	 Q    Q        Q         
 
                                                                        ^                  T : 220    
											   3/4              
  |--3--|       |--3--|  |--3--|     |--3--|       |--3--|  |--3--|                                           
  E  E  E  Q    E  E  E  E  E  E     E  E  E  Q    E  E  E  E  E  E     H        H           E  Q    E  Q     
----------------------------------|----------------------------------|--3-----------------|------------------|
-----3-----3-------3--3--3--3--3--|-----3-----3-------3--3--3--3--3--|--3-----------------|--9--9----9--9----|
-----2-----2-------2--2--2--2--2--|-----2-----2-------2--2--2--2--2--|--3-----------------|--8--8----8--8----|
-----5-----5-------5--5--5--5--5--|-----5-----5-------5--5--5--5--5--|--5-----------------|------------------|
--5--------5----5--------5--------|--5--------5----5--------5--------|--------------------|--8---------------|
----------------------------------|----------------------------------|--------------------|------------------|
  Q	   Q    Q        Q           Q	      Q    Q        Q                                H.  

   E   Q     E   Q       Q     Q    Q      
----------------------|--9----11---------||
--11--11----11--11----|--9----11---------||
--10--10----10--10----|------------------||
----------------------|------------------||
---8------------------|--------8----r----||
----------------------|--6---------------||
   H.                    H     H    H



Duration Legend
---------------
W - whole
H - Half
Q - quarter
E - 8th
S - 16th
T - 32nd
X - 64th
. - note dotted
|-n-|  - n-tuplets


Tablature Legend
----------------
L - tied note
r - Rest
^ - brush up
v - brush down

Login or Register to remove this ad.