Ads

Boss Battle 1 & Fanfare 2 (Chrono Trigger) Guitar Tab

Submitted: Feb 19, 2015 by JordanVS

5
Average: 5 (2 votes)
Download | Listen
Game: Chrono Trigger
Composer(s): Nobuo Uematsu, Yasunori Mitsuda, Noriko Matsueda
Style: Arrangement, Fingerstyle
Series: Chrono

AutoScroll: Slow | Medium | Fast
Boss Battle 1                                                       
Fanfare 2
Chrono Trigger
Yasunori Mitsuda
JordanVS

*Capo on the 2nd fret
*Tempo : 180
*Triplet 8th Feel


-4/4
     |--3--|  |--3--|  |--3--|  |--3--|                                                         
     E  E  E  E  E  E  E  E  E  E  E  E     E  E  E  E  E  E  E  E     E  E  E  E  E  E  E  E   
E||--------------------------------------|--------------------------|--------------------------|
B||--5--------------4--3--------------2--|--1-----------------------|--L-----------------------|
G||-----4--------3--------2--------1-----|--------------------------|--------------------------|
D||--------4--3--------------2--1--------|--3-----------------------|--L-----------------------|
A||--------------------------------------|--------------------------|--------------------------|
E||--------------------------------------|--1--1--1--1--1--1--1--1--|--1--1--1--1--1--1--1--1--|

*Segno

       |--3--|              |--3--|                              |----3----|     
  Q    E  E  E  H           E  E  E  H        E  E     Q    Q    Q    Q    Q     
-------------------------|--------------------------|---------------------------|
----------------1--------|-----------1--------1--2--|--4---------2----1---------|
-------------------------|--------------------------|-------3--------------3----|
--r----3--r--3-----------|--3--r--3-----------------|---------------------------|
-------------------------|--------------------------|---------------------------|
-1--1--1--1--1--1--1--1--|--1--1--1--1--1--1--1--1--|--1--1--1--1--1--1--1--1---|
 E  E  E  E  E  E  E  E     E  E  E  E  E  E  E  E     E  E  E  E  E  E  E  E 


  |--3--|                       |--3--|              |--3--|                  
  E  E  E  H.              Q    E  E  E  H           E  E  E  H        E  E   
------------------------|-------------------------|--------------------------|
-----------1------------|----------------1--------|-----------1--------1--2--|
--1-----3---------------|-------------------------|--------------------------|
-----r------------------|--r----3--r--3-----------|--3--r--3-----------------|
------------------------|-------------------------|--------------------------|
1--1--1--1--1--1--1--1--|-1--1--1--1--1--1--1--1--|--1--1--1--1--1--1--1--1--|
E  E  E  E  E  E  E  E    E  E  E  E  E  E  E  E     E  E  E  E  E  E  E  E 


            |----3----|       |--3--|                       |--3--|            
  Q    Q    Q    Q    Q       E  E  E  H.              Q    E  E  E  H         
---------------------------|------------------------|-------------------------|
--4---------2----1---------|-----------1------------|----------------4--------|
-------3--------------3----|--2-----3---------------|-------------------------|
---------------------------|------------------------|--r----6--r--6-----------|
---------------------------|------------------------|-------------------------|
--1--1--1--1--1--1--1--1---|-1--1--1--1--1--1--1--1-|-4--4--4--4--4--4--4--4--|
  E  E  E  E  E  E  E  E     E  E  E  E  E  E  E  E   E  E  E  E  E  E  E  E 


  |--3--|                              |----3----|       |--3--|                
  E  E  E  H        E  E     Q    Q    Q    Q    Q       E  E  E  H.            
--------------------------|---------------------------|------------------------|
-----------4--------4--5--|--7---------5----4---------|-----------4------------|
--------------------------|-------6--------------6----|--4--r--6---------------|
--6--r--6-----------------|---------------------------|------------------------|
--------------------------|---------------------------|------------------------|
--4--4--4--4--4--4--4--4--|--4--4--4--4--4--4--4--4---|--4--4--4--4--4--4--4--4|
  E  E  E  E  E  E  E  E     E  E  E  E  E  E  E  E      E  E  E  E  E  E  E  E 


       |--3--|              |--3--|                              |----3----|     
  Q    E  E  E  H           E  E  E  H        E  E     Q    Q    Q    Q    Q     
-------------------------|--------------------------|---------------------------|
----------------4--------|-----------4--------4--5--|--7---------5----4---------|
-------------------------|--------------------------|-------6--------------6----|
--r----6--r--6-----------|--6--r--6-----------------|---------------------------|
-------------------------|--------------------------|---------------------------|
--4--4--4--4--4--4--4--4-|--4--4--4--4--4--4--4--4--|--4--4--4--4--4--4--4--4---|
  E  E  E  E  E  E  E  E    E  E  E  E  E  E  E  E     E  E  E  E  E  E  E  E 

                         -3/4                                           -2/4
  |--3--|                  |--3--|  |--3--|          |--3--|               |---3---|  |--3--|   
  E  E  E  H.              E  E  E  E  E  E  Q       E  E  E  Q    Q       E   E   E  E  E  E   
------------------------|-------------------------|---------------------|----------------------|
-----------4------------|--1--------1--------0----|--1--------0----3----|--1h--2p--1-----------|
--5--r--6---------------|-----0--------0----------|-----0----------0----|-------------0--------|
------------------------|--------0--------0--2----|--------0--2----0----|----------------0-----|
------------------------|-------------------------|---------------------|-------------------0--|
--4--4--4--4--4--4--4--4|--3--------3--------2----|--3--------2---------|--3-------------------|
  E  E  E  E  E  E  E  E

-3/4                                           -2/4                   -4/4
  |--3--|  |--3--|          |--3--|               |---3---|  |--3--|     |--3--|  |--3--|  |--3--|  |--3--|   
  E  E  E  E  E  E  Q       E  E  E  Q    Q       E   E   E  E  E  E     E  E  E  E  E  E  E  E  E  E  E  E   
-------------------------|---------------------|----------------------|--------------------------------------|
-------------------------|---------------------|--0h--2p--0-----------|--------------------------------------|
--4--------4--------3----|--4--------3----6----|----------------------|--------------------------------------|
-----4--------4-----1----|-----4-----1----4----|-------------4--------|-----------------------------1-----1--|
--------4--------4-------|--------4-------4----|----------------4-----|--1--0--1--3--1--3--4--3--4-----4-----|
--2--------2--------1----|--2--------1---------|--2----------------4--|--------------------------------------|


			      -3/4                                      -2/4	   *Da Segno
  |--3--|       |--3--|                                                    |--3--|                     
  E  E  E  Q    E  E  E  Q       Q    Q     Q         Q    Q     Q         E  E  E  Q       Q    Q     
------------------------------|--------------------|--------------------|----------------|------------|
------------------------------|--1----1----(1)/----|--1----1----(1)/----|--1--1--1--1----|--L---------|
-----------0----1--0--1--3----|--0----0-----x/-----|--0----0-----x/-----|--0--0--0--0----|--L---------|
--3--1--3---------------------|--0----0-----x/-----|--0----0-----x/-----|--0--0--0--0----|--L---------|
------------------------------|--1----1----(1)/----|--1----1----(1)/----|--1--------1----|--L---------|
-----------1-------------4----|--------------------|--------------------|----------------|------------|

 Fanfare 2(Tempo : 142)
  |--3--|           |--3--|           |--3--|           |--3--|  |--3--|                 
  E  E  E  E  E     E  E  E  E  E     E  E  E  E  E     E  E  E  E  E  E     Q    Q      
-----------------|-----------------|-----------------|--6--6-----6-----6--|--8---------||
-----------------|--1--1-----1--4--|--6--6--4--6--8--|--------8-----8-----|------------||
--------------3--|--------3--------|-----------------|--------------------|------------||
--5--5--3--5-----|-----------------|-----------------|--------------------|--------r---||
--3--------3-----|--1--------1-----|-----------------|--------------------|------------||
-----------------|-----------------|--4--------4-----|--6--------6--------|--8---------||




Duration Legend
---------------
W - whole
H - half
Q - quarter
E - 8th
S - 16th
T - 32nd
X - 64th
. - note dotted
|-n-|  - n-tuplets


Tablature Legend
----------------
L - tied note
x - dead note
r - rest
/ -  slide into from below or out of upwards
\ -  slide into from above or out of downwards
^ - brush up
v - brush down
Login or Register to remove this ad.