Ads

Black Omen (Version 2) (Chrono Trigger) Guitar Tab

Submitted: Jul 22, 2021 by Omnicide (Last updated: Jul 29, 2021)

5
Average: 5 (4 votes)
Download | Listen
Game: Chrono Trigger
Composer(s): Nobuo Uematsu, Yasunori Mitsuda, Noriko Matsueda
Style: Arrangement, Fingerstyle
Series: Chrono

This song is also called Black Dream

AutoScroll: Slow | Medium | Fast
Black Omen      
Chrono Trigger                              
Composed by Yasunori Mitsuda
Arranged by William Geesdorf


Playing instructions: Play to the end of the measure marked Da Segno. Go back to the measure marked "Segno" and play to the end.


     ^                                       ^                 
     W                   W                   W                 
E||--3----------------|--L----------------|--6----------------|
B||--4----------------|--L----------------|--7----------------|
G||--5----------------|--L----------------|--8----------------|
D||--5----------------|--L----------------|--8----------------|
A||--3----------------|--L----------------|--6----------------|
E||-------------------|-------------------|-------------------|


                      ^                  "Segno"                                            
  W                   W                     E  E  E  E  E  E  E  E   
--L----------------|--2----------------||---------------------------|
--L----------------|--3----------------||---------3-----2-----3-----|
--L----------------|--4----------------||*--------------------------|
--L----------------|--4----------------||*-----4-----4-----0-----4--|
--L----------------|--2----------------||---2-----------------------|
-------------------|-------------------||---------------------------|


  E  E  E  E  E  E  E  E   4x  E  E  E  E  E  E  E  E   
---------------------------||--------------------------|
--2-----0-----------0------||--3-----------------------|
--------------3-----------*||--------0--2--------0--2--|
-----------------4-----0--*||-----0-----------0--------|
-----4-----5---------------||--------------------------|
---------------------------||--3--------3--------------|


  E  E  E  Q    E  E  E     E  E  E  E  E  E  E  E     E  E  E  Q    E  E  E   
-------------------------|--------------------------|-------------------------|
--3--3-----3-------1-----|--------------------------|--3--3-----3-------------|
--3--3-----3----2-----3--|--------0--2--------0--2--|--3--3-----3----2--0--5--|
-------------------------|-----0-----------0--------|-------------------------|
-------------------------|--------------------------|-------------------------|
--------3----------------|--3--------3--------------|--------3----------------|


  E  E  E  E  E  E  E  E     E  E  E  Q    E   E  E     Q    E  E  E  E  E  E   
--------------------------|--------------------------|-------------------------|
--------------------------|--3--3-----3--------------|-------------------------|
--2-----0--2--------0--2--|--3--3-----3-----------0--|-------0--2--------0--2--|
-----0-----------0--------|----------------2h--3-----|--0-------------0--------|
--------------------------|--------------------------|-------------------------|
--3--------3--------------|--------3-----------------|--3-------3--------------|


  E  E  E  Q    E  Q       E  E  E  E  E  E  E  E     E  E  E  Q    E  E  E   
------------------------|--------------------------|-------------------------|
--3--3-----3------------|--3-----------------------|--3--3-----3-------1-----|
--3--3-----3------------|--------0--2--------0--2--|--3--3-----3----2-----3--|
------------------------|-----0-----------0--------|-------------------------|
------------------------|--------------------------|-------------------------|
--------3-------3--1----|--3--------3--------------|--------3----------------|


  E  E  E  E  E  E  E  E     E  E  E  Q    E  E  E     E  E  E  E  E  E  E  E   
--------------------------|-------------------------|--------------------------|
--------------------------|--3--3-----3-------------|--------------------------|
--------0--2--------0--2--|--3--3-----3----2--0--5--|--2-----0--2--------0--2--|
-----0-----------0--------|-------------------------|-----0-----------0--------|
--------------------------|-------------------------|--------------------------|
--3--------3--------------|--------3----------------|--3--------3--------------|


  E  E  E  Q    E  E  E     E  E  E  E  E  E  E  E     E  E  E  Q    E  Q     
-------------------------|--------------------------|------------------------|
--3--3-----3-------------|--------------------------|--3--3-----3------------|
--3--3-----3----3--2-----|--0-----0--2--------0--2--|--3--3-----3------------|
----------------------3--|-----0-----------0--------|------------------------|
-------------------------|--------------------------|------------------------|
--------3----------------|--3--------3--------------|--------3-------3--1----|


    E  E  E  E  E  E  E  E     E  E  E  E  E  E  E  E   
|---------------------------|--------------------------|
|---3--------4--------3-----|-----4--------3-----4-----|
|*--3--------3--------3-----|-----3--------3-----3-----|
|*--------------------------|--------------------------|
|---3--3--3--3--3--3--3--3--|--3--3--3--3--3--3--3--3--|
|---------------------------|--------------------------|


  E  E  E  E  E  E  E  E     E  E  E  E  E  E  E  E     
--------------------------|---------------------------||
--6--------7--------6-----|-----7--------6-----7------||
--6--------6--------6-----|-----6--------6-----6-----*||
--------------------------|--------------------------*||
--6--6--6--6--6--6--6--6--|--6--6--6--6--6--6--6--6---||
--------------------------|---------------------------||


   Q    E  E  E  E  E  E     E  E  E  E  E  E  E  E     Q    E  E  E  E  E  E   
--------------------------|--------------------------|-------------------------|
---3----------------------|--------------------------|-------------------------|
*--3----------------------|--------5-----3-----5-----|--6----------8-----------|
*-------------------------|--------5-----3-----5-----|--6----------8-----------|
---3----3--3--3--3--3--3--|--3--3--3--3--3--3--3--3--|--6----6--6--6--6--6--6--|
--------------------------|--------------------------|-------------------------|


  Q    E  E  E  E  E  E       Q.     Q.     Q       W                 
--------------------------||---------------------|-------------------|
--6-----------------------||--6------5------4----|--L----------------|
--6----------6-----------*||--5------4------3----|--L----------------|
-------------8-----------*||---------------------|-------------------|
--6----6--6--6--6--6--6---||--5------4------3----|--L----------------|
--------------------------||---------------------|-------------------|


  Q.     Q.     Q       H.           E  E     E  E  E  E  E  E  E  E   
---------------------|---------------------|--------------------------|
--4------3------2----|--L------------2--1--|--------------------------|
--3------2------1----|--L------------------|--------0-----------0-----|
---------------------|---------------------|-----2-----2-----5--------|
--3------2------1----|--L------------------|--0-----------6--------0--|
---------------------|---------------------|--------------------------|


  E  E  E  E  E  E  E  E       E  E  E  E  E  E  E  E   
--------------------------||---------------------------|
--------------------------||---1-----------------------|
-----0--------------0-----||*--------0-----------0-----|
--2-----2--------0-----0--||*-----2-----2-----5--------|
--------------4-----------||---0-----------6--------0--|
-----------3--------------||---------------------------|

                                                              Da Segno
  E  E  E  E  E  E  E  E   3x  Q.     Q.     Q       W                 
---------------------------||---------------------|-------------------|
---------------------------||--1------2------3----|--L----------------|
-----0--------------0-----*||--0------1------2----|--L----------------|
--2-----2--------0-----0--*||---------------------|-------------------|
--------------4------------||--0------1------2----|--L----------------|
-----------3---------------||---------------------|-------------------|


  W                  
-------------------||
--L----------------||
--L----------------||
-------------------||
--L----------------||
-------------------||




Duration Legend
---------------
W - whole
H - half
Q - quarter
E - 8th
S - 16th
T - 32nd
X - 64th
. - note dotted
|-n-|  - n-tuplets


Tablature Legend
----------------
L - tied note
h - hammer on
^ - brush up
Login or Register to remove this ad.