Black Omen (Chrono Trigger) Guitar Tab

Submitted: Mar 18, 2012 by Omnicide

5
Average: 5 (10 votes)
Download | Listen
Game: Chrono Trigger
Composer(s): Nobuo Uematsu, Yasunori Mitsuda, Noriko Matsueda
Style: Arrangement, Fingerstyle
Series: Chrono

This song is also called Black Dream

AutoScroll: Slow | Medium | Fast
Black Omen
Chrono Trigger
Composed by Yasunori Mitsuda
Arranged by William Geesdorf


      W                   W                    W                   W                 
E||--------------------|-------------------|--------------------|-------------------|
B||---8----------------|--L----------------|--11----------------|--L----------------|
G||---8----------------|--L----------------|--11----------------|--L----------------|
D||--12----------------|--L----------------|--15----------------|--L----------------|
A||--------------------|-------------------|--------------------|-------------------|
E||---8----------------|--L----------------|--11----------------|--L----------------|


   W                     E  E  E  E  E  E  E  E     E  E  E  E  E  E  E  E   4x
--------------------||---------------------------|---------------------------||
---7----------------||---------3-----2-----3-----|---------------------------||
---7----------------||*--------------------------|--6-----4-----3-----4-----*||
--11----------------||*-----4-----4-----0-----4--|-----------------4-----0--*||
--------------------||---2-----------------------|-----4-----5---------------||
---7----------------||---------------------------|---------------------------||


  E  E  E  E  E  E  E  E     E  E  E  E  E  E  E  E     E  E  E  E  E  E  E  E   
--------------------------|--------------------------|--------------------------|
--3-----------------------|--3--3-----3--------1-----|--------------------------|
--------0--2--------0--2--|--3--3-----3-----2-----3--|--------0--2--------0--2--|
-----0-----------0--------|--------------------------|-----0-----------0--------|
--------------------------|--------------------------|--------------------------|
--3--------3--------------|--------3-----3-----------|--3--------3--------------|


  E  E  E  E  E  T. T. T  E  E     E  E  E  E  E  E  E  E     E  E  E  E  E  E  E  E   
--------------------------------|--------------------------|--------------------------|
--3--3-----3--------------------|--------------------------|--3--3-----3--------------|
--3--3-----3-----2h-3p-2p-0--5--|--2-----0--2--------0--2--|--3--3-----3-----------0--|
--------------------------------|-----0-----------0--------|-----------------2--3-----|
--------------------------------|--------------------------|--------------------------|
--------3-----3-----------------|--3--------3--------------|--------3-----3-----------|


  E  E  E  E  E  E  E  E     E  E  E  Q    E  E  E     E  E  E  E  E  E  E  E   
--------------------------|-------------------------|--------------------------|
--------------------------|--3--3-----3-------------|--3-----------------------|
--------0--2--------0--2--|--3--3-----3-------------|--------0--2--------0--2--|
-----0-----------0--------|----------------------3--|-----0-----------0--------|
--5-----------------------|-------------------------|--------------------------|
--3--------3--------------|--------3-------3--1-----|--3--------3--------------|


  E  E  E  E  E  E  E  E     E  E  E  E  E  E  E  E     E  E  E  E  E  T. T. T  E  E   
--------------------------|--------------------------|--------------------------------|
--3--3-----3--------1-----|--------------------------|--3--3-----3--------------------|
--3--3-----3-----2-----3--|--------0--2--------0--2--|--3--3-----3-----2h-3p-2p-0--5--|
--------------------------|-----0-----------0--------|--------------------------------|
--------------------------|--------------------------|--------------------------------|
--------3-----3-----------|--3--------3--------------|--------3-----3-----------------|


  E  E  E  E  E  E  E  E     E  E  E  E  E  E  E  E     E  E  E  E  E  E  E  E   
--------------------------|--------------------------|--------------------------|
--------------------------|--3--3-----3--------------|--------------------------|
--2-----0--2--------0--2--|--3--3-----3-----3--2-----|--0-----0--2--------0--2--|
-----0-----------0--------|-----------------------3--|-----0-----------0--------|
--------------------------|--------------------------|--------------------------|
--3--------3--------------|--------3-----3-----------|--3--------3--------------|


  E  E  E  Q    E  Q         E  E  E  E  E  E  E  E     E  E  E  E  E  E  E  E   
------------------------||---------------------------|--------------------------|
--3--3-----3------------||---3--------4--------3-----|-----4--------3-----4-----|
--3--3-----3------------||*--3--------3--------3-----|-----3--------3-----3-----|
------------------------||*--5--------5--------5-----|-----5--------5-----5-----|
------------------------||---3--3--3--3--3--3--3--3--|--3--3--3--3--3--3--3--3--|
--------3-------3--1----||---------------------------|--------------------------|


  E  E  E  E  E  E  E  E     E  E  E  E  E  E  E  E        E  E  E  E  E  E  E  E   
--------------------------|---------------------------||---------------------------|
--6--------7--------6-----|-----7--------6-----7------||---3-----------------------|
--6--------6--------6-----|-----6--------6-----6-----*||*--3-----------------------|
--8--------8--------8-----|-----8--------8-----8-----*||*--------------------------|
--6--6--6--6--6--6--6--6--|--6--6--6--6--6--6--6--6---||---3--3--3--3--3--3--3--3--|
--------------------------|---------------------------||---------------------------|


  E  E  E  E  E  E  E  E     E  E  E  E  E  E  E  E     E  E  E  E  E  E  E  E     
--------------------------|--------------------------|---------------------------||
--------------------------|--------------------------|--6------------------------||
--------5-----3-----5-----|--6-----------8-----------|--6-----------6-----------*||
--------5-----3-----5-----|--6-----------8-----------|--------------8-----------*||
--3--3--3--3--3--3--3--3--|--6--6--6--6--6--6--6--6--|--6--6--6--6--6--6--6--6---||
--------------------------|--------------------------|---------------------------||


  ^        ^        ^                                  ^        ^        ^     
  E  E  E  E  E  E  Q       E  E  E  E  E  E  E  E     E  E  E  E  E  E  Q     
-------------------------|--------------------------|-------------------------|
--6--------5--------4----|--------------------------|--4--------3--------2----|
--5--------4--------3----|--------------------------|--3--------2--------1----|
--7--------6--------5----|--------------------------|--5--------4--------3----|
--5--5--5--4--4--4--3----|-----3--3--3--3--3--3--3--|--3--3--3--2--2--2--1----|
-------------------------|--------------------------|-------------------------|


  E  E  E  E  E  E  E  E     E  E  E  E  E  E  E  E     E  E  E  E  E  E  E  E   
--------------------------|--------------------------|--------------------------|
--------------------2--1--|--------------------------|--------------------------|
--------------------1--0--|--------0-----------0-----|-----0--------------------|
--------------------3--2--|-----2-----2-----5--------|--2-----2--------0--------|
-----1--1--1--1--1--1-----|--0-----------6--------0--|--------------4-----4-----|
--------------------------|--------------------------|-----------3-----------3--|


    E  E  E  E  E  E  E  E     E  E  E  E  E  E  E  E   3x  Q.     Q.     Q     
|---------------------------|---------------------------||---------------------|
|---1-----------------------|---------------------------||--1------2------3----|
|*--0-----0-----------0-----|-----0--------------------*||--0------1------2----|
|*-----2-----2-----5--------|--2-----2--------0--------*||--2------3------4----|
|---0-----------6--------0--|--------------4-----4------||--0------1------2----|
|---------------------------|-----------3-----------3---||---------------------|


  W                     E  E  E  E  E  E  E  E     E  E  E  E  E  E  E  E   4x
-------------------||---------------------------|---------------------------||
--L----------------||---------3-----2-----3-----|---------------------------||
--L----------------||*--------------------------|--6-----4-----3-----4-----*||
--L----------------||*-----4-----4-----0-----4--|-----------------4-----0--*||
--L----------------||---2-----------------------|-----4-----5---------------||
-------------------||---------------------------|---------------------------||


  E  E  E  E  E  E  E  E     E  E  E  E  E  E  E  E     E  E  E  E  E  E  E  E   
--------------------------|--------------------------|--------------------------|
--3-----------------------|--3--3-----3--------1-----|--------------------------|
--------0--2--------0--2--|--3--3-----3-----2-----3--|--------0--2--------0--2--|
-----0-----------0--------|--------------------------|-----0-----------0--------|
--------------------------|--------------------------|--------------------------|
--3--------3--------------|--------3-----3-----------|--3--------3--------------|


  E  E  E  E  E  T. T. T  E  E     E  E  E  E  E  E  E  E     E  E  E  E  E  E  E  E   
--------------------------------|--------------------------|--------------------------|
--3--3-----3--------------------|--------------------------|--3--3-----3--------------|
--3--3-----3-----2h-3p-2p-0--5--|--2-----0--2--------0--2--|--3--3-----3-----------0--|
--------------------------------|-----0-----------0--------|-----------------2--3-----|
--------------------------------|--------------------------|--------------------------|
--------3-----3-----------------|--3--------3--------------|--------3-----3-----------|


  E  E  E  E  E  E  E  E     E  E  E  Q    E  E  E     E  E  E  E  E  E  E  E   
--------------------------|-------------------------|--------------------------|
--------------------------|--3--3-----3-------------|--3-----------------------|
--------0--2--------0--2--|--3--3-----3-------------|--------0--2--------0--2--|
-----0-----------0--------|----------------------3--|-----0-----------0--------|
--5-----------------------|-------------------------|--------------------------|
--3--------3--------------|--------3-------3--1-----|--3--------3--------------|


  E  E  E  E  E  E  E  E     E  E  E  E  E  E  E  E     E  E  E  E  E  T. T. T  E  E   
--------------------------|--------------------------|--------------------------------|
--3--3-----3--------1-----|--------------------------|--3--3-----3--------------------|
--3--3-----3-----2-----3--|--------0--2--------0--2--|--3--3-----3-----2h-3p-2p-0--5--|
--------------------------|-----0-----------0--------|--------------------------------|
--------------------------|--------------------------|--------------------------------|
--------3-----3-----------|--3--------3--------------|--------3-----3-----------------|


  E  E  E  E  E  E  E  E     E  E  E  E  E  E  E  E     E  E  E  E  E  E  E  E   
--------------------------|--------------------------|--------------------------|
--------------------------|--3--3-----3--------------|--------------------------|
--2-----0--2--------0--2--|--3--3-----3-----3--2-----|--0-----0--2--------0--2--|
-----0-----------0--------|-----------------------3--|-----0-----------0--------|
--------------------------|--------------------------|--------------------------|
--3--------3--------------|--------3-----3-----------|--3--------3--------------|


  E  E  E  Q    E  Q         E  E  E  E  E  E  E  E     E  E  E  E  E  E  E  E   
------------------------||---------------------------|--------------------------|
--3--3-----3------------||---3-----4-----3--4-----3--|-----4-----3--3-----4-----|
--3--3-----3------------||*--3-----3-----3--3-----3--|-----3-----3--3-----3-----|
------------------------||*--5-----5-----5--5-----5--|-----5-----5--5-----5-----|
------------------------||---3--------3--3-----------|--3-----3-----3--------3--|
--------3-------3--1----||---------------------------|--------------------------|

                                                        Fade out
  E  E  E  E  E  E  E  E     E  E  E  E  E  E  E  E       E  E  E  E  E  E  E  E   
--------------------------|---------------------------||--------------------------|
--6-----7-----6--7-----6--|-----7-----6--6-----7------||--3-----4-----3--4-----3--|
--6-----6-----6--6-----6--|-----6-----6--6-----6-----*||--3-----3-----3--3-----3--|
--8-----8-----8--8-----8--|-----8-----8--8-----8-----*||--5-----5-----5--5-----5--|
--6--------6--6-----------|--6-----6-----6--------6---||--3--------3--3-----------|
--------------------------|---------------------------||--------------------------|


  E  E  E  E  E  E  E  E     E  E  E  E  E  E  E  E     E  E  E  E  E  E  E  E   
--------------------------|--------------------------|--------------------------|
-----4-----3--3-----4-----|--6-----7-----6--7-----6--|-----7-----6--6-----7-----|
-----3-----3--3-----3-----|--6-----6-----6--6-----6--|-----6-----6--6-----6-----|
-----5-----5--5-----5-----|--8-----8-----8--8-----8--|-----8-----8--8-----8-----|
--3-----3-----3--------3--|--6--------6--6-----------|--6-----6-----6--------6--|
--------------------------|--------------------------|--------------------------|


  E  E  E  E  E  E  E  E     E  E  E  E  E  E  E  E     E  E  E  E  E  E  E  E   
--------------------------|--------------------------|--------------------------|
--3-----4-----3--4-----3--|-----4-----3--3-----4-----|--6-----7-----6--7-----6--|
--3-----3-----3--3-----3--|-----3-----3--3-----3-----|--6-----6-----6--6-----6--|
--5-----5-----5--5-----5--|-----5-----5--5-----5-----|--8-----8-----8--8-----8--|
--3--------3--3-----------|--3-----3-----3--------3--|--6--------6--6-----------|
--------------------------|--------------------------|--------------------------|


  E  E  E  E  E  E  E  E    
--------------------------||
-----7-----6--6-----7-----||
-----6-----6--6-----6-----||
-----8-----8--8-----8-----||
--6-----6-----6--------6--||
--------------------------||




Duration Legend
---------------
W - whole
H - half
Q - quarter
E - 8th
S - 16th
T - 32nd
X - 64th
. - note dotted
|-n-|  - n-tuplets


Tablature Legend
----------------
L - tied note
h - hammer on
p - pull off
^ - brush up
Login or Register to remove this ad.

4 comments on Black Omen

Nice

5

Killer arrangement. You should do more Chrono trigger songs.

I don't really know what to

5

I don't really know what to say when you submit a new tab, they're all so flawless somehow lol.

Or in other words: Again a really good arrangement + thanks for that! Thought every good CT song was already tabbed out :D I was mistaken!

Thanks guys! Now i'm in the

Thanks guys! Now i'm in the mood to tab some stuff again.

Great, great stuff. I like

5

Great, great stuff. I like the chord work especially. I'm going to see if I can bang out a ^8 version of the second section...

(partial barre 7)    (no barre)

-----10---9---10---|-9---7---6---7----
---7----7--------7-|-----------7------
------------7------|---6---7-------7--
-9-----------------|------------------
-------------------|------------------
-------------------|------------------

Got it! Hmm...I always heard the first 10 as the first beat, but you're right, it's the second beat. I don't think I'll ever hear it the "right way" though, it's just too prominent to not feel like beat one.