Black Omen (Chrono Trigger) Guitar Tab

Submitted: Feb 09, 2011 by BacardiBreezer

0
Download | Listen
Game: Chrono Trigger
Composer(s): Nobuo Uematsu, Yasunori Mitsuda, Noriko Matsueda
Style: Alternate picking, Transcription
Series: Chrono

This song is also called Black Dream

AutoScroll: Slow | Medium | Fast
Black Omen (Black Dream)
Chrono Trigger
Composer: Yasunori Mitsuda
Tabbed by: Bacardibreezer
2/8/11


e|-----------------------------|
B|---8---------11---------7----|
G|---8---------11---------7----|
D|--12---------15--------11----|
A|-----------------------------|
E|-----------------------------|

e|--------------------------------------------------------|
B|-----------15----14----15----14----12----11----12-------|
G|--------11----11----------11----------------11----------|
D|--------------------12----------11----12----------12----|
A|-----14-------------------------------------------------|
E|--------------------------------------------------------| x4

e|--------------------------------------------------------------------------------------------------------------|
B|--15---------------------13---------------------------------13------------------------------------------------|
G|--------(10-10-10)----14----15----(10-10-10)----14h15p15p12----14----(10-10-10)------------12-------(10-10-10)|
D|-------------------------------------------------------------------------------------14-15----12--------------|
A|--------------------------------------------------------------------------------------------------------------|
E|--------------------------------------------------------------------------------------------------------------|

e|--------------------------------------------------------------------------------------------------------------|
B|--15---------------------13---------------------------------13------------------------------------------------|
G|--------(10-10-10)----14----15----(10-10-10)----14h15p15p12----14----(10-10-10)-----15-14----12-----(10-10-10)|
D|------------------------------------------------------------------------------------------15------------------|
A|--------------------------------------------------------------------------------------------------------------|
E|--------------------------------------------------------------------------------------------------------------|

e|--10--11---10--11---10-11----13--14---13--14---13-14----10--11---10--11---10-11----13--14---13--14---13-14----|
B|--11--11---11--11---11-11----14--14---14--14---14-14----11--11---11--11---11-11----14--14---14--14---14-14----|
G|--12--12---12--12---12-12----15--15---15--15---15-15----12--12---12--12---12-12----15--15---15--15---15-15----|
D|--------------------------------------------------------------------------------------------------------------|
A|--------------------------------------------------------------------------------------------------------------|
E|--------------------------------------------------------------------------------------------------------------|

Play the above measure once, then play again with a second guitar playing this measure:

e|----------------------------13---------------------------------------13-----|
B|--15----13------13--14--16------14---------15----13------13--14--16------14-|
G|------------15---------------------------------------15---------------------|
D|----------------------------------------------------------------------------|
A|----------------------------------------------------------------------------|
E|----------------------------------------------------------------------------|

e|--13--12--11-----11--10--9-----9-8----|
B|--13--12--11-----11--10--9-----9-8----|
G|--------------------------------------|
D|--------------------------------------|
A|--------------------------------------|
E|--------------------------------------|

And then, piano:

e|--------------------------------------------|
B|--13-------13-------13-------13--14--15-----|
G|--12-------12-------12-------12--13--14-----|
D|--14-------14-------14-------14--15--16-----|
A|--------------------------------------------|
E|--------------------------------------------|

Or the bass:

e|----------------------------------|      |------------|
B|----------------------------------|      |------------|
G|----------------------------------|      |------------|
D|----------1---1-------------------|      |------------|
A|--0---0-0-------0--0-0------------|	   |--0--1--2---|
E|-----------------------3--3-3-----| x4   |------------|
Login or Register to remove this ad.