Login or Register to remove this ad.

Battle Theme 2 (Chrono Trigger) Bass Tab

Submitted: Jun 26, 2009 by auriplane (Last updated: Dec 04, 2010)

5
Average: 5 (1 vote)
Download | Listen
Game: Chrono Trigger
Composer(s): Nobuo Uematsu, Yasunori Mitsuda, Noriko Matsueda
Style: Transcription
Series: Chrono

AutoScroll: Slow | Medium | Fast
                    Chrono Trigger - Battle 2 BASS TAB
                         Song by Yasunori Mitsuda

                  Tabbed by auriplane ([email protected])


Four-string bass, standard tuning.

G |----------------|----------------|------0---------|2---4---5---4---|
D |--2---0-2---0-2-|------0-2---0-2-|--3---------3---|----------------|
A |----2-----2-----|----2-----2-----|----3---------3-|------3-------3-|
E |0---------------|--0-------------|1---------1-----|--1-------1-----|

G |----------------|----------------|----5-------5---|----5-----------|
D |--2---0-2---0-2-|------0-2---0-2-|----------------|----------------|
A |----2-----2-----|----2-----2-----|3-3---3---3---3-|--3---3-3-2---0-|
E |0---------------|--0-------------|----------------|----------------|

G |--2---0-2---0---|------4---4-----|------5---4-----|------7---9-7---|
D |----2-----2-----|----4-------4---|----5-------5-0-|----7---------7-|
A |--------------2-|--2-----------3-|--3-------------|----------------|
E |----------------|----------------|----------------|----------------|

G |--2---0-2---0---|------0---------|------4-----2-4-|------4---2-----|
D |----2-----2-----|--3---------3---|----4-----4-----|----4-------4-1-|
A |0---------------|----3---------2-|--2-------------|--2-------------|
E |--------------1-|1---------1-----|----------------|----------------|

G |--------------|--------------|
D |2-------------|2-------------| x4     <-- 7/8 time
A |--2-----------|--------------|
E |----0-1---1---|----0-1---1---|

G |----4---2---4---|--4---2-5---4-2-|----4---2---4---|--4---2-0-------|
D |------4---------|----4-----------|------4---------|----4-----4-2---|
A |2-------------2-|----------------|2-------------2-|--------------2-|
E |----------------|----------------|----------------|----------------|

Login or Register to remove this ad.