Battle 2 (Chrono Trigger) Guitar Tab

Submitted: Jun 06, 2014 by Colin_spade (Last updated: Jul 17, 2014)

5
Average: 5 (1 vote)
Download | Listen
Game: Chrono Trigger
Composer(s): Nobuo Uematsu, Yasunori Mitsuda, Noriko Matsueda
Style: Arrangement, Fingerstyle
Series: Chrono

AutoScroll: Slow | Medium | Fast
                                                                Yasunori Mitsuda
Track 1



     Q    E  E  Q    Q       E  E  Q    Q    Q       Q    E  E  Q    Q     
E||-----------------------|-----------------------|-----------------------|
B||-----------------------|-------------0---------|--3-------1--1----0----|
G||------------------0----|-----2------------2----|-----------------------|
D||--2-------4------------|-----------------------|-----------------------|
A||-----------------------|-----------------------|-----------------------|
E||--0----0-----0----0----|--0-----0----0----0----|--1----1-----1----1----|


  E  E  Q    Q    Q       Q    E  E  Q    Q       E  E  Q    Q    Q     
-----------------------|-----------------------|------------------3----|
-----------------------|-----------------------|-----0-----------------|
-----2-------0----2----|----------0-------2----|-------------2----0----|
-----------------------|--4--------------------|-----------------------|
-----------------------|-----------------------|-----------------------|
--1-----1----1----1----|--0----0-----0----0----|--0-----0----0----0----|


  Q    E  S  S Q    Q       Q    Q    E  E  E  E     Q    Q    Q    E  E   
--2-------3p-2-0---------|---------------------0--|--0----L----0----5--2--|
-------------------------|---------------1--3-----|-----------------------|
-------------------------|------------------------|-----------------------|
-------------------------|------------------------|-----------------------|
--3----3-------3----3----|--3----3----3-----2--0--|--L----0----0----0--2--|
-------------------------|------------------------|-----------------------|


  Q    E  E  E  E  E  E     Q    Q    Q    Q       Q    E  E  E  E  E  E   
--L-------------------0--|--0---------0----7----|--7-------5-----0--2--3--|
----------3-----1--3-----|----------------------|-------------------------|
-------------------------|----------------------|-------------------------|
-------------------------|----------------------|--0----0-----0-----0-----|
--L----2-----2-----2--3--|--L----3----3----3----|-------------------------|
-------------------------|----------------------|-------------------------|


  Q    Q    E  E  E  E     Q    Q    Q    E  E     Q    Q    Q    Q     
--L------------2--3--5--|--L---------3----5--2--|----------------------|
------------------------|-----------------------|----------------------|
------------------------|-----------------------|----------------------|
------------------------|-----------------------|----------------------|
--0----0----0-----0-----|--------------------2--|--L----2----2----2----|
---------------------1--|--L----1----1----1-----|----------------------|


  Q    Q    Q    Q       E  E  E  E  E  E  E  E     E  E  Q    Q     
----------------------|--0-----0--1-----1-----0--|--L-----3----3----|
----------------------|--0--3--0--1-----1-----0--|--L--3--3----3----|
----------------------|-----2--------------------|-----2------------|
----------------------|--------------------------|------------------|
--2----2----2----2----|--------------------------|------------------|
----------------------|--0--------1-----1-----0--|--L-----1----1----|


  E  E  E  E  E  E  E  E     E  E  Q    Q       E  E  E  E  E  E  E  E   
--0-----0--1-----1-----0--|--L-----3----3----|--0-----0--1-----1-----0--|
--0--3--0--1-----1-----0--|--L--3--3----3----|--0--3--0--1-----1-----0--|
-----2--------------------|-----2------------|-----2--------------------|
--------------------------|------------------|--------------------------|
--------------------------|------------------|--------------------------|
--0--------1-----1-----0--|--L-----1----1----|--0--------1-----1-----0--|


  E  E  Q    Q       E  E  E  E  E  E  E  E     E  E  Q    Q     
--L-----3----3----|--0-----0--1-----1-----0--|--L-----3----3----|
--L--3--3----3----|--0--3--0--1-----1-----0--|--L--3--3----3----|
-----2------------|-----2--------------------|-----2------------|
------------------|--------------------------|------------------|
------------------|--------------------------|------------------|
--L-----1----1----|--0--------1-----1-----0--|--L-----1----1----|


  Q    E  E  Q    E  E     E  E  E  E  Q    E  E     Q    E  E  Q    E  E   
--0---------------------|-------------------------|--2---------------------|
------------------------|-------------------------|------------------------|
--4----4-----2----4-----|-----4-----2--5----4--2--|--4----4-----2----4-----|
----------4-------------|--------4----------------|----------4-------------|
--2------------------2--|--L----------------------|--2------------------2--|
------------------------|-------------------------|------------------------|


  E  E  E  E  E  E  E  E     
---------------------------||
-----0---------------------||
-----------2--0-----------*||
--------4--------4--2-----*||
--L--------------------2---||
---------------------------||




Duration Legend
---------------
W - whole
H - half
Q - quarter
E - 8th
S - 16th
T - 32nd
X - 64th
. - note dotted
|-n-|  - n-tuplets


Tablature Legend
----------------
L - tied note
x - dead note
g - grace note
(n) - ghost note
> - accentuded note
NH - natural harmonic
AH - artificial harmonic
TH - tapped harmonic
SH - semi harmonic
PH - pitch harmonic
h - hammer on
p - pull off
b - bend
br - bendRelease
pb - preBend
pbr - preBendRelease
brb - bendReleaseBend
\n/ - tremolo bar dip
\n - tremolo bar dive
-/n - tremolo bar Release up
/n\ - tremolo bar inverted dip
/n - tremolo bar return
-\n - tremolo bar Release down
S - shift slide
s - legato slide
/ -  slide into from below or out of upwards
\ -  slide into from above or out of downwards
~ - vibrato
W - wide vibrato
tr - trill
TP - tremolo picking
T - tapping
S - slap
P - pop
< - fade in
^ - brush up
v - brush down
Login or Register to remove this ad.

3 comments on Battle 2

No comments eh? :0 well, I'll

No comments eh? :0 well, I'll be a monkey's uncle

oh shit, i'm sorry. I try to

5

oh shit, i'm sorry. I try to make it a point to try every song, or at least look at every song and if it's finger style I always give it a go. I must have missed this one...

It's perty cool sounding =)

Lmao it's cool man xD Thank

Lmao it's cool man xD
Thank you c: I thought it was a pretty cool arrangement when I began it :0
Then was like :0 woah! I did pretty good c: someone else could probably do a better job x3 but I did me best for this one