Ayla's Theme (Chrono Trigger) Guitar Tab

Submitted: Apr 13, 2012 by Max_depa

5
Average: 5 (2 votes)
Download | Listen
Game: Chrono Trigger
Composer(s): Nobuo Uematsu, Yasunori Mitsuda, Noriko Matsueda
Style: Arrangement, Fingerstyle
Series: Chrono

AutoScroll: Slow | Medium | Fast
Ayla's Theme - Chrono Trigger
Arranged by: Max_depa
Composed by: Yasunori Mitsuda


     Q.     E  E  Q.        Q.     E  E  Q.        Q.     E  E  Q.      
E||----------------------|----------------------|----------------------|
B||----------------------|----------------------|----------------------|
G||----------------------|----------------------|----------------------|
D||----------------------|--0------0--0--0------|--2------2--2--2------|
A||--3------3--3--3------|----------------------|----------------------|
E||----------------------|----------------------|----------------------|


  Q.     E  E  E  E  E     Q.     E  E  Q.        Q.     E  E  Q.      
------------------------|----------------------|----------------------|
------------------------|----------------------|----------------------|
------------------0--0--|----------------------|----------------------|
--4------4--4--4--------|----------------------|--0------0--0--0------|
------------------------|--3------3--3--3------|----------------------|
------------------------|----------------------|----------------------|


  Q.     E  E  Q.        Q.     E  E  E  E  E       Q.     E  E  E  Q     
----------------------|------------------------||-------------------3----|
----------------------|------------------------||----------1-------------|
----------------------|------------------0--0--||*--2--------------------|
--2------2--2--2------|--4------4--4--4--------||*-----------------------|
----------------------|------------------------||---3------3--3--3-------|
----------------------|------------------------||------------------------|


  Q    E  E  E  E  Q       Q.     E  E  E  Q       E  E  E  E  E  E  E  E   
-------2-----0----------|------------------0----|--------------------------|
-------------------3----|--1------3-------------|--------------------------|
------------------------|-----------------------|-----2--0-----0-----------|
--0-------0--0--0-------|--2------2--2--2-------|--4--------4-----4--2--0--|
------------------------|-----------------------|--------------------------|
------------------------|-----------------------|--------------------------|


  Q.     E  E  E  Q       Q    E  E  E  E  Q       Q.     E  E  E  Q     
------------------3----|-------2-----0----------|------------------0----|
---------1-------------|-------------------3----|--1------3-------------|
--2--------------------|------------------------|-----------------------|
-----------------------|--0-------0--0--0-------|--2------2--2--2-------|
--3------3--3--3-------|------------------------|-----------------------|
-----------------------|------------------------|-----------------------|


  E  E  E  E  E  E  E  E       W                  
-----5--3--2--3--2--0------||-------------------||
-----------------------3---||--L----------------||
--------------------0-----*||-------------------||
--4-----------------------*||-------------------||
---------------------------||-------------------||
---------------------------||-------------------||




Duration Legend
---------------
W - whole
H - half
Q - quarter
E - 8th
S - 16th
T - 32nd
X - 64th
. - note dotted
|-n-|  - n-tuplets


Tablature Legend
----------------
L - tied note
x - dead note
g - grace note
(n) - ghost note
> - accentuded note
NH - natural harmonic
AH - artificial harmonic
TH - tapped harmonic
SH - semi harmonic
PH - pitch harmonic
h - hammer on
p - pull off
b - bend
br - bendRelease
pb - preBend
pbr - preBendRelease
brb - bendReleaseBend
\n/ - tremolo bar dip
\n - tremolo bar dive
-/n - tremolo bar Release up
/n\ - tremolo bar inverted dip
/n - tremolo bar return
-\n - tremolo bar Release down
S - shift slide
s - legato slide
/ -  slide into from below or out of upwards
\ -  slide into from above or out of downwards
~ - vibrato
W - wide vibrato
tr - trill
TP - tremolo picking
T - tapping
S - slap
P - pop
< - fade in
^ - brush up
v - brush down
Login or Register to remove this ad.