Ads

At the Bottom of the Night (Chrono Trigger) Guitar Tab

Submitted: Dec 31, 2016 by chimatte (Last updated: Feb 01, 2017)

5
Average: 5 (2 votes)
Download | Listen
Game: Chrono Trigger
Composer(s): Nobuo Uematsu, Yasunori Mitsuda, Noriko Matsueda
Style: Arrangement, Fingerstyle
Series: Chrono

Click here for a video example.

AutoScroll: Slow | Medium | Fast
AT BOTTOM OF NIGHT
Chrono Trigger
Yasunori Mitsuda
Dropped D Tuning



     Q    Q    Q    Q         E  E  E  E  H           E  E  E  E  E  E  E  E   
E||-----------------5----||---0--------------------|--------0-----0-----0-----|
B||------------3---------||------------1--L--------|-----------3-----3-----6--|
G||----------------------||*-----------2--L--------|-----------2--------------|
D||----------------------||*--------2--3--L--------|--------2--3--------------|
A||----------------------||------0-----------------|-----0--------------------|
D||----------------------||---0--------------------|--0-----------------------|


  E  E  E  E  H           E  E  E  E  Q    Q       E  E  E  E  H           E  E  E  Q    Q    E   
-----------------------|-------------------3----|--5--------------------|----------------0----1--|
--------------6--------|--------------6----3----|-----------3--3--------|-----------3----3-------|
--5--------------------|-----------3-------3----|--------2--2--L--------|--------2--2----2-------|
-----------8-----------|--------3---------------|-----3-----3--L--------|-----3-----3------------|
-----5--8--------------|-----5------------------|--1--------------------|--1---------------------|
--5--------------------|--5---------------------|-----------------------|------------------------|


  E  E  E  E  H           H        Q    E  E     E  E  E  E  H           E  E  E  E  E  E  E  E   
-----------------------|--1--------0-------5--|--0--------------------|--------0-----0-----0-----|
--1--------------------|--2--------2----3-----|-----------1--L--------|-----------3-----3-----6--|
-----------2--L--------|--0--------0----------|-----------2--L--------|-----------2--------------|
--------3--3--L--------|----------------------|--------2--3--L--------|--------2--3--------------|
-----3-----3--L--------|--0--------0----------|-----0-----------------|-----0--------------------|
--3--------------------|----------------------|--0--------------------|--0-----------------------|


  E  E  E  E  H           E  E  E  E  Q    Q       E  E  E  E  E  E  E  E   
-----------------------|-------------------3----|--5-----------------5-----|
--------------6--------|--------------6----3----|--3--------6--6-----------|
--5--------------------|-----------3-------3----|--3-----3--7--------5--3--|
-----------8-----------|--------3---------------|-----3-----------3--------|
-----5--8--------------|-----5------------------|--------------------------|
--5--------------------|--5---------------------|--------------------------|


  E  E  E  E  E  E  E  E     E.  S E  Q    E  E.  S    E.  S E  E  E.  S E  E   
--3-----------------------|-------------------------|--------------------------|
--5-----5-----3-----1-----|--3-------------3------3-|--3-----------3---1-L-----|
--------5--------0-----0--|--0--------2-------------|--2--------------------2--|
-----5-----5--2-----------|-----------0----2--2-----|--4-----------------------|
--3-----------------3-----|------0-L--------------0-|--------------------------|
--------------------------|--0----------------------|--0---0-L--0--L-----------|


  Q    E  E  E  E  E  E     E  E  E  E  E  E  E  E     E  E  E  E  E.  S E  E   
-------------------------|--3-----------------------|--3--------3--6---5-L--3--|
-------------------------|--------6-----5--------6--|--------2--------------5--|
--3----------2--------2--|-----------3--------3-----|-----2--------------------|
-------0--3-----3--0-----|-----5-----------5--------|--------------------------|
-------------------------|--3-----------------------|--0-----------4-----------|
--5----------------------|--------------------------|--------------------------|


  E  E  E  E  E  E  E  E     E  E  E  E  E  E  E  E     E  E  E  E  E  E  E  E   
--1--0-----0--------------|-----------------0--1-----|-----------------0--1--3--|
--------3-----1--3-----1--|--3-----------------------|--3-----------3--------1--|
--------------------2-----|-----------------------0--|--2-----0--2--3--2--3-----|
--0-----------2-----------|--0--------0--3--2--3-----|-----3--------------------|
--------------------3-----|-----1--3-----------------|--------------------------|
--------------------------|--------------------------|--------------------------|

                        ______________________  _____________________
                       | 1.                    | 2. 
  Q    Q    Q    Q       Q    Q    Q    Q         Q    Q    H          
--1---------0----1----|--0----L---------5-----||--0----L-------------||
--1----3--------------|-------2----3----------||-------2----3--------||
----------------------|------------2---------*||------------2--------||
----------------------|--2-------------------*||--2---------3--------||
----------------------|-----------------------||---------------------||
----------------------|-----------------------||------------0--------||




Duration Legend
---------------
W - whole
H - half
Q - quarter
E - 8th
S - 16th
. - note dotted
|-n-|  - n-tuplets

Login or Register to remove this ad.