Ads

At the Bottom of the Night (Chrono Trigger) Guitar Tab

Submitted: Sep 07, 2013 by Colin_spade

5
Average: 5 (5 votes)
Download | Listen
Game: Chrono Trigger
Composer(s): Nobuo Uematsu, Yasunori Mitsuda, Noriko Matsueda
Style: Arrangement, Fingerstyle
Series: Chrono

AutoScroll: Slow | Medium | Fast
Track 1
                             ^                                       
     Q    Q         E  E  E  E  H           E  E  E  E  E  E  E  E   
E||-------5----||---0--------------------|--------0-----0-----0--1--|
B||--3---------||------------1--L--------|-----------3-----3--------|
G||------------||*-----------2--L--------|-----------2--------------|
D||------------||*--------2--3--L--------|--------2--3--------------|
A||------------||------0-----------------|-----0--------------------|
D||------------||---0--------------------|--0-----------------------|


           ^                       ^                        ^            
  E  E  E  E  H           E  E  E  E  Q    Q       E  E  E  E  H         
-----------------------|-------------------3----|--5--------------------|
--------------6--------|--------------6---------|--------1--3--L--------|
--5-----2--3-----------|--5-----2--3------------|-----------2--L--------|
-----0-----3-----------|-----0-----3------------|-----3-----0--L--------|
-----------5-----------|-----------5------------|--1--------------------|
--5--------------------|--5---------------------|-----------------------|


           ^                         ^              ^        ^           
  E  E  E  E  E  Q    E     E  E  E  E  H           H        Q    E  E   
-----------------0----1--|-----------------------|--1--------0-------5--|
--------1--3--L----------|--1--------------------|--2--------2----3-----|
-------------------------|-----------2--L--------|--3--------3----------|
-----3-----0--L----------|--------3--3--L--------|-----------5----------|
--1--------1--L----------|-----3-----3--L--------|--0-------------------|
-------------------------|--3--------------------|----------------------|


  ^                                                  ^           ^         
  E  E  E  E  H           E  E  E  E  E  E  E  E     E  E  E  E  H         
--0--------------------|--------0-----0-----0--1--|-----------------------|
--1--------------------|-----------3-----3--------|--------------6--------|
--2--------------------|--------------------------|--5-----------7--------|
--3-----2--3--L--------|--------2--3--------------|--3--0--7--8--8--------|
-----0-----------------|-----0--------------------|--5--------------------|
--0--------------------|--0-----------------------|--5--------------------|


                           ^                                                  
  E  E  E  E  Q    Q       E  E  E  E  E  E  E  E     E  E  E  E  E  E  Q     
--------------1----3----|--5-----------------5-----|--3-----0----------------|
------------------------|--6--------6--6-----------|--5-----------3-----1----|
--------------2----3----|--7--------7--------5--3--|--5-----5--0-----0-------|
--------2--3------------|--------8-----------------|-----5--------2----------|
-----0------------------|-----8-----------8--------|--3-----------------3----|
--5---------------------|--8-----------------------|-------------------------|


  ^                           ^                                                
  E.  S E  E  E  E  E  S S    E.  S E  E  E.  S E  E     Q.     E  Q    E  E   
--0------------------------|--------------------------|--------------------5--|
---------------------------|--3-----------3---1-L-----|-----------------------|
--2------------------------|--2--------------------2--|--3--------------3-----|
--5--------0--L--2--L--0---|--4-----------------------|--3--------------5-----|
------0-L----------------0-|--------------------------|--5------3--L----------|
--0------------------------|--0---0-L--0--0-----------|-----------------------|


  ^                       ^                        ^                     
  Q    E  E  Q.     E     Q.     E  E.  S E  E     Q.     E  Q    E  E   
--3----1-----0------1--|--3------3--6---5-L--3--|--1---------0----1-----|
--3--------------------|--2---------------------|--3--------------------|
--3--------------------|--2---------------------|--2--------------------|
-----------------------|------------------------|--0------0-------------|
--3-------3---------3--|--0------0--4--------4--|------------3-------3--|
-----------------------|------------------------|-----------------------|


  ^                        ^                        ^                    
  Q.     E  E  E  E  E     Q.     E  E  E  E  E     Q.     E  Q.     E   
---------------0--1-----|---------------0--1--3--|--1-------------------|
--3---------------------|--3---------3-----------|--2-------------------|
--3---------------------|--3---------------------|--0-------------------|
--3---------------------|--3---------------------|-------------------2--|
--1------1--L--------1--|--3------3--------------|--0------0--L---------|
------------------------|------------------------|----------------------|


  ^                       ^                  
  H        Q    Q         W                  
--0-------------5-----||--0----------------||
--2--------3----------||--1----------------||
--0------------------*||--2----------------||
---------------------*||--3----------------||
--0-------------------||--x----------------||
----------------------||--3----------------||




Duration Legend
---------------
W - whole
H - half
Q - quarter
E - 8th
S - 16th
T - 32nd
X - 64th
. - note dotted
|-n-|  - n-tuplets


Tablature Legend
----------------
L - tied note
x - dead note
g - grace note
(n) - ghost note
> - accentuded note
NH - natural harmonic
AH - artificial harmonic
TH - tapped harmonic
SH - semi harmonic
PH - pitch harmonic
h - hammer on
p - pull off
b - bend
br - bendRelease
pb - preBend
pbr - preBendRelease
brb - bendReleaseBend
\n/ - tremolo bar dip
\n - tremolo bar dive
-/n - tremolo bar Release up
/n\ - tremolo bar inverted dip
/n - tremolo bar return
-\n - tremolo bar Release down
S - shift slide
s - legato slide
/ -  slide into from below or out of upwards
\ -  slide into from above or out of downwards
~ - vibrato
W - wide vibrato
tr - trill
TP - tremolo picking
T - tapping
S - slap
P - pop
< - fade in
^ - brush up
v - brush down
Login or Register to remove this ad.

1 comment on At the Bottom of the Night

your version is nice !

5

your version is nice !