1000 A.D. (Chrono Trigger) Guitar Tab

Submitted: Mar 04, 2017 by kpcart

5
Average: 5 (7 votes)
Download | Listen
Game: Chrono Trigger
Composer(s): Nobuo Uematsu, Yasunori Mitsuda, Noriko Matsueda
Style: Arrangement, Fingerstyle
Series: Chrono

This song is also called Peaceful Days

AutoScroll: Slow | Medium | Fast
                         1000 A.D.(Peaceful Days)                             


Track 1
     Q    Q    Q    Q       Q    Q    Q    Q       E  E  E  E  Q    Q     
E||--3----1----0---------|--1----0--------------|--------0---------------|
B||--1--------------3----|--1---------3----1----|--1--3-----3--L---------|
G||--0-------------------|--2-------------------|-------------------2----|
D||----------------------|----------------------|------------------------|
A||--3-------------------|--0-------------------|--1---------------------|
E||----------------------|----------------------|------------------------|


  W                   W                   Q    Q    Q    Q     
-------------------|-------------------|------------0---------|
--1----------------|--3----------------|----------------------|
--2----------------|--0----------------|--0---------0---------|
--3----------------|--0----------------|-------2---------2----|
-------------------|-------------------|--3-------------------|
--1----------------|--3----------------|----------------------|


  Q    Q    Q    Q       Q    Q    Q    Q       Q    Q    Q    Q     
--1----0--------------|--3-------------------|----------------------|
------------3----1----|-----------------3----|--3-------------------|
------------0---------|----------------------|----------------------|
-------2--------------|------------0---------|------------0---------|
--0-------------------|-------0--------------|-------2---------2----|
----------------------|--1-------------------|--3-------------------|


  Q    Q    Q    Q       Q    Q    Q    Q       Q    Q    Q    Q     
------------0---------|--1----0--------------|--3-------------------|
----------------------|------------3----1----|----------------------|
--0---------0---------|------------0---------|-----------------0----|
-------2---------2----|-------2--------------|------------2---------|
--3-------------------|--0-------------------|-------2--------------|
----------------------|----------------------|--0-------------------|


  Q    Q    Q    Q       Q    Q    Q    Q       Q    Q    Q    Q     
------------5----7----|--8---------7----5----|--3---------0---------|
--0---------0---------|------------5---------|----------------------|
-------0--------------|-------5--------------|-----------------0----|
----------------------|----------------------|------------2---------|
----------------------|--0-------------------|-------2--------------|
----------------------|----------------------|--0-------------------|


  Q    Q    Q    Q       H        H           Q    Q    Q    Q     
--5---------3---------|--0-----------------|-----------------0----|
-----------------6----|--1--------3--------|--1----0----1---------|
-------5--------------|--0--------0--------|------------0---------|
--3-------------------|--2--------0--------|-------2---------2----|
----------------------|--3--------2--------|--0-------------------|
----------------------|--------------------|----------------------|


  Q    Q    Q    Q       Q    Q    Q    Q       Q    Q    Q    Q     
----------------------|----------------------|-----------------3----|
--3--------------1----|--1-------------------|--3-------------------|
------------2---------|----------------------|-----------------0----|
-------4--------------|------------0----3----|------------0---------|
--5-------------------|-------0--------------|-------2--------------|
----------------------|--1-------------------|--3-------------------|


  Q    Q    Q    Q       Q    Q    Q    Q       Q    Q    Q    Q     
--5---------3----5----|--3--------------1----|--1---------0---------|
----------------------|------------3---------|-----------------3----|
-------5--------------|------------0---------|-------0--------------|
--3-------------------|-------0--------------|------------3---------|
----------------------|----------------------|--3---------1---------|
----------------------|--3-------------------|----------------------|


  H        Q    Q       Q    Q    Q    Q       H        H         
----------------0----|--1---------0---------|--------------------|
--2--------3---------|--3--------------3----|--1--------3--------|
---------------------|-------2--------------|--------------------|
---------------------|--0---------3---------|--------------------|
--0--------2----4----|----------------------|--------------------|
---------------------|----------------------|--1--------3--------|


  Q    Q    Q    Q       H        H           Q    Q    Q    Q     
----------------------|--------------------|------------0---------|
--1-------------------|--------------------|----------------------|
------------0---------|-----------0--------|--0---------0----0----|
-------2---------3----|--2-----------------|-------2----2----2----|
--3--------------3----|--3-----------------|--3-------------------|
----------------------|--------------------|----------------------|


  Q    Q    Q    Q       Q    Q    Q    Q       Q    Q    Q    Q     
--1----0--------------|--3-------------------|----------------------|
------------3----1----|-----------------3----|--3-------------------|
-------0----0----0----|----------------------|----------------------|
-------2----2----2----|-------0----0----0----|-------0----0----0----|
--0-------------------|-------0----0----0----|-------2----2----2----|
----------------------|--1-------------------|--3-------------------|


  Q    Q    Q    Q       Q    Q    Q    Q       Q    Q    Q    Q     
------------0---------|--1----0--------------|--3-------------------|
----------------------|------------3----1----|----------------------|
--0---------0----0----|-------0----0----0----|----------------------|
-------2----2----2----|-------2----2----2----|-------2----2----2----|
--3-------------------|--0-------------------|-------2----2----2----|
----------------------|----------------------|--0-------------------|


  Q    Q    Q    Q       Q    Q    Q    Q       Q    Q    Q    Q     
------------5----7----|--8---------7----5----|--3---------0---------|
-------0----0----0----|-------5----5----5----|----------------------|
-------0----0----0----|-------5----5----5----|----------------------|
----------------------|----------------------|-------2----2----2----|
----------------------|--0-------------------|-------2----2----2----|
--0-------------------|----------------------|--0-------------------|


  Q    Q    Q    Q       H        H           Q    Q    Q    Q     
--5---------3---------|--0-----------------|-----------------0----|
-----------------6----|--1--------3--------|--1----0----1----1----|
-------5----5----5----|--0--------0--------|-------0----0----0----|
--3----3----3----3----|--2--------0--------|-------2----2----2----|
----------------------|--3--------2--------|--0-------------------|
----------------------|--------------------|----------------------|


  Q    Q    Q    Q       Q    Q    Q    Q       Q    Q    Q    Q     
----------------------|----------------------|-----------------3----|
--3--------------1----|--1-------------------|--3--------------0----|
-------2----2----2----|----------------------|-----------------0----|
-------4----4---------|-------0----0----0----|-------0----0----0----|
--5-------------------|-------0----0----0----|-------2----2---------|
----------------------|--1-------------------|--3-------------------|


  Q    Q    Q    Q       Q    Q    Q    Q       Q    Q    Q    Q     
--5---------3----5----|--3--------------1----|--1---------0---------|
----------------------|------------3----3----|-----------------3----|
-------5----5----5----|-------0----0----0----|-------0--------------|
--3----3----3----3----|-------0----0----0----|-------2----3----3----|
----------------------|----------------------|--3---------1----1----|
----------------------|--3-------------------|----------------------|


  H        Q    Q       Q    Q    Q    Q       H        H         
----------------0----|--1---------0---------|--------------------|
--2--------3---------|--3--------------3----|--1--------3--------|
---------------------|--2----2----2----2----|--2--------0--------|
--2------------------|--0----3----3----3----|--3--------0--------|
--0--------2----4----|----------------------|--------------------|
---------------------|----------------------|--1--------3--------|


  Q    Q    Q    Q       H.           Q       Q    Q    Q    Q     
----------------------|---------------0----|--1---------0---------|
--1-------------------|--------------------|--3--------------3----|
------------0---------|--------------------|-------2----2----2----|
-------2----2----3----|--2-----------------|--0----3----3----3----|
--3----3----3----3----|--3-----------------|----------------------|
----------------------|--------------------|----------------------|


  Q    Q    Q    Q       Q    Q    Q    Q       W                  
----------------------|----------------------|-------------------||
--1---------3---------|--1-------------------|-------------------||
--2---------0---------|------------0---------|-------------------||
-------0---------0----|-------2----2----3----|--2----------------||
------------2---------|--3----3----3----3----|--3----------------||
--3-------------------|----------------------|-------------------||




Duration Legend
---------------
W - whole
H - half
Q - quarter
E - 8th
S - 16th
T - 32nd
X - 64th
. - note dotted
|-n-|  - n-tuplets


Tablature Legend
----------------
L - tied note
x - dead note
g - grace note
(n) - ghost note
> - accentuded note
NH - natural harmonic
AH - artificial harmonic
TH - tapped harmonic
SH - semi harmonic
PH - pitch harmonic
h - hammer on
p - pull off
b - bend
br - bendRelease
pb - preBend
pbr - preBendRelease
brb - bendReleaseBend
\n/ - tremolo bar dip
\n - tremolo bar dive
-/n - tremolo bar Release up
/n\ - tremolo bar inverted dip
/n - tremolo bar return
-\n - tremolo bar Release down
S - shift slide
s - legato slide
/ -  slide into from below or out of upwards
\ -  slide into from above or out of downwards
~ - vibrato
W - wide vibrato
tr - trill
TP - tremolo picking
T - tapping
S - slap
P - pop
< - fade in
^ - brush up
v - brush down
Login or Register to remove this ad.

2 comments on 1000 A.D.

This is the best arrangement

This is the best arrangement of this song I have seen. Great job!

Awesome!

5

Awesome!