1000 A.D. (Chrono Trigger) Bass Tab

Submitted: Nov 10, 2013 by tomorning (Last updated: Nov 17, 2013)

5
Average: 5 (2 votes)
Download | Listen
Game: Chrono Trigger
Composer(s): Nobuo Uematsu, Yasunori Mitsuda, Noriko Matsueda
Style: Arrangement, Fingerstyle, Natural harmonics
Series: Chrono

This song is also called Peaceful Days

AutoScroll: Slow | Medium | Fast
                                        Peaceful Days 
                                       (やすらぎの日々)
                                       - ~solobass~ -
                                 ~ from game "Chrono Trigger" ~


Music by Yasunori Mitsuda (光田康則)
Arranged by to*morning

Standard Tuning

Q=78

 4/4

m = upper mordente

  rall................................fermete..accel.....fermete
|-12-10-9-7-10-9-7----|-5-7-9-7-------------------|-----------||
|-10---------------10-|---------------<5>------7--|-7----9----||
|------------8--------|-----------<5>-------------|-----------||
|---------------------|---------6-----------------|-----------||



a tempo                                                                crescendo............
||--0----9----10-9m-7----|-12----------7-------|-0----9----10-9m-7----|-12-----------------14-16-|
||o---10---10---------10-|-------10-12-----5---|---10---10---------10-|-------12----14-----15----|
||o------------0---------|----12---------5---5-|------------0---------|----14----14----14--------|
||--8--------------------|-10----------3-------|-8--------------------|--0-----------------------|



                                                         *Repeat time = your feel
                                                         \1~-----------------

|-17---16-14-12---9--|-14--12-10--9--7--|-5-4-5-9-7----5-|-5-------7-----12-|
|-17-----------------|-15--14-12-10--5--|-----5------7---|-3---3-5---5-0----|
|--0-0----------7----|------------------|-0-------5------|---3--------------|
|-------------0------|------------8--7--|----------------|---------3--------|



|-14----12-14-12-------10-|-10--9-7-6--7-9-|-10--9-7-5--7--|-5----------||
|----10-------------12----|----------------|--0------------|-----5-----o||
|-------------10----------|---------0------|---------------|---7---7---o||
|-13-------------10-------|--8--6------7-9-|---------1--3--|-8-------8--||


  
\-*last time--------------
  perdendosi          fermete  dolce..................................rit..............      fermete.
|-5-------<7>---------12-----|-14--12-14-12----10-|-10--9-7-6--7--9-|-10--9-7-5--7--|-5------<4>----*||
|-3---3-5---------<5>--------|--------------12----|-----------------|--0------------|-----5--<5>----*||
|---3---------<5>------------|-----------10-------|---------0-------|---------------|---7-----3-----*||
|----------3-----------------|-13-----------------|--8--6------7--9-|---------1--3--|-8-------------*||fine.
Login or Register to remove this ad.

1 comment on 1000 A.D.

Pretty cool, don't see many

5

Pretty cool, don't see many solo bass arrangements of anything. Thanks for this =)

One question though, are the <5> supposed to be natural harmonic at fret 5? Cause it doesn't sound quite right on my bass using the harmonics, or maybe i just have the timing wrong so they sound out of place.