1000 A.D. (Chrono Trigger) Guitar Tab

Submitted: Aug 17, 2013 by Colin_spade

4.833335
Average: 4.8 (6 votes)
Download | Listen
Game: Chrono Trigger
Composer(s): Nobuo Uematsu, Yasunori Mitsuda, Noriko Matsueda
Style: Arrangement, Fingerstyle
Series: Chrono

This song is also called Peaceful Days

AutoScroll: Slow | Medium | Fast
Peaceful Days                                   


                                                                Yasunori Mitsuda
Track 1



     ^           ^                                         ^        ^         
     E  E  E  E  E  E  E  E     S  S S S H        E  E     H        H         
E||--3--1--0-----1--0--------|-------0------------------|--------------------|
B||-----------3--------3--1--|--1h-3---3-L--------------|-----------0--------|
G||--0-----------2-----------|-----------------------2--|--2--------0--------|
D||--2-----------3-----------|--0-----------------------|--------------------|
A||--3-----------3-----------|--0-----------------------|--3--------2--------|
E||--------------------------|--1-----------------------|--3--------3--------|


    E  E  E  E  E  E  E  E     E  E  E  E  E  E  E  E   
|---------0-----1--0--------|--3-----------------------|
|---------------------3--1--|-----------3--3-----------|
|*--0-----0-----------0-----|--------2-----------------|
|*-----2-----2-----2-----2--|--0--3-----3--------3-----|
|---3-----------0-----------|-----------------5-----5--|
|---------------------------|--------------3-----------|


  E  E  E  E  E  E  E  E     E  E  E  E  E  E  E  E   
--------0-----1--0--------|--3-----------------5--7--|
--------------------3--1--|--------0-----------------|
--0-----0-----------0-----|-----0-----0--------0-----|
-----2-----2-----2-----2--|--2--------------2--------|
--3-----------0-----------|--------------2--------7--|
--------------------------|--------------------------|


                                         ^    ^                                
  E  E  E  E  E  E  E  E     E  E  E  E  Q    Q       E  E  E  E  E  E  E  E   
--8-----7--5--3-----0-----|--5-----3--1--0---------|-----------0--------------|
--------------------0-----|--------1----------3----|--1--0--1-----3--------1--|
-----------0-----0-----0--|-----2-----2--0----0----|--------------------2-----|
--------------2-----------|--3---------------------|--------2-----0--4-----4--|
--0-----7-----------------|--------------3----2----|--0--3-----3--------------|
-----8--------------------|------------------------|--------------------------|


                                                        ^          ^           
  E  E  E  E  E  E  E  E     E  E  E  E  E  E  E  E     Q    E  E  Q    E  E   
-----------------------3--|--5-----3--5--3--------1--|--1----0-------------0--|
--1-----------3-----------|--------------------3-----|----------3--2----3-----|
-----------------------0--|-----------------------0--|--0----------0----------|
-----------3--------0-----|-----------3--------0-----|--3----------2----------|
-----0--3--------2--------|-----0--3--------2--------|--3----1-----0----2--4--|
--3-----------3-----------|--1-----------3-----------|------------------------|


  E  E  E  E  E  E  E  E     E  E  E  E  E  E  E  E   
--1-----0-----------------|--------------------------|
-----------3--------3-----|--1-----------------------|
--------2-----5-----------|--------0-----------0-----|
--0--3-----3--------3--0--|-----2-----2-----2-----2--|
-----------------5--------|--3-----------3-----------|
--------------3-----------|--------------------------|


  E  E  E  E  E  E  E  E     E  E  E  E  E  E  E  E   
--------0-----1--0--------|--3-----------------------|
--------------------3--1--|-----------3--3-----------|
--0--0--0--0-----0--0--0--|--------------------------|
-----2--2--2-----2--2--2--|-----3--3--3-----3--3--3--|
--3-----------0-----------|--5--------------5--5--5--|
--------------------------|--------------3-----------|


  E  E  E  E  E  E  E  E     E  E  E  E  E  E   E  E   
--------0-----1--0--------|--3---------------------7--|
--------------------3--1--|--------------------10-----|
--0--0--0--0-----0--0--0--|-----2--2--2---------------|
-----2--2--2-----2--2--2--|--2--3--3--3---------------|
--3-----------0-----------|-----------------7---7--7--|
--------------------------|--------------7------------|


                                         ^    ^                                
  E  E  E  E  E  E  E  E     E  E  E  E  Q    Q       E  E  E  E  E  E  E  E   
--8-----7--5--3-----0-----|--5-----3-----0---------|-----------0--------------|
--------------------------|-----------6-------3----|--1--0--1-----3--------1--|
--------------------------|--------------0----0----|--------------------2-----|
-----------2-----2--2--2--|------------------------|-----2--2--2-----0--0--0--|
-----3--3--3-----2--2--2--|-----3--3--3--3----2----|--0--3--3--3-----3--3--3--|
--5-----------3-----------|--1---------------------|--------------2-----------|


                                                        ^                       
  E  E  E  E  E  E  E  E     E  E  E  E  E  E  E  E     Q    E  E  E  E  E  E   
-----------------------3--|--5-----3--5--3--------1--|--1----0--------------0--|
--1-----------3-----------|--------------------3-----|----------3--2-----3-----|
--------------------------|--------------------------|--0-------------0--0--0--|
-----3--3--3-----3--3--3--|--------------------------|--3-------------2--2--2--|
-----3--3--3-----2--2--2--|-----3--3--3-----2--2--2--|--3----1-----0-----------|
--3-----------3-----------|--1-----------3-----------|-------------------------|


  E  E  E  E  E  E  E  E     E  E  E  E  Q.     E     E  E  E  E  E  E  E  E   
--1-----0-----------------|---------------------0--|--1-----0-----------------|
-----------3--------3-----|--1---------------------|-----------3--------3-----|
-----2--2--2--5-----------|--------0---------------|-----2--2--2--5-----------|
--0--3--3--3-----3--3--3--|-----2--2--3--2---------|--0--3--3--3-----3--3--3--|
-----------------5--5--5--|--3--------5--3---------|-----------------5--5--5--|
--------------3-----------|------------------------|--------------3-----------|


  E  E  E  E  H           
------------------------||
--1---------------------||
--------0--------------*||
-----2--2--3--2--------*||
--3--------5--3---------||
------------------------||




Duration Legend
---------------
W - whole
H - half
Q - quarter
E - 8th
S - 16th
T - 32nd
X - 64th
. - note dotted
|-n-|  - n-tuplets


Tablature Legend
----------------
L - tied note
x - dead note
g - grace note
(n) - ghost note
> - accentuded note
NH - natural harmonic
AH - artificial harmonic
TH - tapped harmonic
SH - semi harmonic
PH - pitch harmonic
h - hammer on
p - pull off
b - bend
br - bendRelease
pb - preBend
pbr - preBendRelease
brb - bendReleaseBend
\n/ - tremolo bar dip
\n - tremolo bar dive
-/n - tremolo bar Release up
/n\ - tremolo bar inverted dip
/n - tremolo bar return
-\n - tremolo bar Release down
S - shift slide
s - legato slide
/ -  slide into from below or out of upwards
\ -  slide into from above or out of downwards
~ - vibrato
W - wide vibrato
tr - trill
TP - tremolo picking
T - tapping
S - slap
P - pop
< - fade in
^ - brush up
v - brush down
Login or Register to remove this ad.

7 comments on 1000 A.D.

Great job !

5

I like your version, it s probably my favorite about this tune. Even lonlonjp tab isn't so attractive to me. ho I like 2nde versus with a lot of rythm inside it sounds pretty, as the official piano score http://csd.varlew.net/ct/ctsheet/1-04%20Peaceful%20Days%202.jpg. Thanx for sharing !

thank you! and yes, it is

thank you! and yes, it is actually. the copy of sheet that i had was in Japanese. xD but thank you! :D never thought id see a comment saying that mine is more "attractive" than lonlonjps xD

Yep, easily one of the best,

5

Yep, easily one of the best, if not the best, arrangement of this song. Great work! How's that Baldur's Gate 2 Romance tab coming, by the way?

thank you! :D aha. ah, its

thank you! :D aha. ah, its coming along. taking alot longer than i thought it would. it seems easy at first but, its quite hard when you are a perfectionist xD i can say that i haven't forgotten the request and its a work in progress. :)

Yeesh, you're making me

Yeesh, you're making me nervous. It would be kind of sad if when I finally got to play this tab (I requested it from someone else about a year ago, he was just too busy)I wasn't able to.

How much do you have done? Or do you have an ETA?

I hope I'm not being annoying about this, I've just been checking this site pretty much every day for a year waiting for the song haha.

I know you'll do an excellent job on it, and I expect it to be among the best tabs I've ever seen here. That's the standard you've set, and I wouldn't want to damage that by rushing you.

No pressure though. hahaha

No pressure though. hahaha

Ooh, line 9 measure

Ooh, line 9 measure one--*inhales sharply through teeth*

Other than that, looks very doable! Haven't tried it yet, am away from home, but will do.