Ads

Seiken he no Kibou (Chrono Crusade) Guitar Tab

Submitted: Dec 28, 2009 by Maikoi92

5
Average: 5 (7 votes)
Download | Listen
Game: Chrono Crusade
Composer(s): Hikaru Nanase
Style: Arrangement, Fingerstyle, Natural harmonics

AutoScroll: Slow | Medium | Fast
Seiken he no Kibou  
From Chrono Crusade

arranged by maikoi15011
                              


Guitar
     Q    Q    H           H.           E  E     Q    Q    Q.     E   
E||---------------------|---------------------|----------------------|
B||--3----1----0--------|---------------0--1--|--3----1----0---------|
G||------------0--------|--2------------------|------------0------0--|
D||-------0-------------|---------------------|-------0--------------|
A||---------------------|---------------------|----------------------|
D||--5------------------|--4------------------|--3-------------------|


  W                   Q    Q    Q.     E     Q    Q    Q    Q     
--3----------------|----------------------|----------------------|
-------------------|--1----1----3------1--|--1---------0---------|
-------------------|------------0---------|-----------------0----|
-------------------|----------------------|------------0---------|
-------------------|-------3--------------|-------0--------------|
--2----------------|--1-------------------|--0-------------------|


                      ^                   ^                   
  W                   W                   Q    Q    H         
-------------------|-------------------|---------------------|
-------------------|-------------------|--3----1----0--------|
-------------------|--2----------------|--0---------0--------|
--2----------------|--4----------------|-------0-------------|
--0----------------|--5----------------|---------------------|
-------------------|--0----------------|--5------------------|


                          ^                                          
  Q    Q    Q    E  E     Q    Q    Q.     E     Q    Q    H         
-----------------------|----------------------|--3------------------|
-----------------0--1--|--3----1----0---------|------------1--------|
--2---------2----------|------------0------0--|-------0-------------|
-------0---------------|--3----0--------------|--2------------------|
-----------------------|----------------------|---------------------|
--4--------------------|--3-------------------|---------------------|


                                                           ^         
  Q    Q    Q    E  E     Q    Q    Q    Q       Q    Q    H         
--3---------5----L--7--|--8----7--------------|------------5--------|
-----------------------|--8---------8---------|------------5--------|
-------0---------------|-------7---------7----|--6------------------|
--1--------------------|------------9----5----|------------7--------|
-----------------------|----------------------|-------7-------------|
-----------------------|----------------------|--7------------------|


                                ^                             
  W                   Q    Q    H           W                 
--L----------------|------------5--------|--L----------------|
-------------------|---------------------|--L----------------|
-------------------|--5---------7--------|-------------------|
--L----------------|-------7----7--------|-------------------|
-------------------|--5------------------|-------------------|
-------------------|---------------------|-------------------|


  Q    Q    Q    Q       Q    Q    Q    E  E     Q    Q    Q    E  E   
----------------------|-----------------------|-----------------------|
--3----1----0---------|-----------------0--1--|--3----1----0----------|
--0---------0---------|--2---------2----------|------------0-------0--|
-------0---------0----|-------0---------0-----|-------0---------0-----|
----------------------|-----------------------|-----------------------|
--5-------------------|--4--------------------|--3--------------------|


  Q    Q    Q    Q       Q    Q    Q    E  E     Q    Q    Q    Q     
--3-------------------|-----------------------|----------------------|
----------------------|--1----1----3-------1--|--1----0--------------|
------------0---------|------------0----------|------------0---------|
----------------------|-----------------------|-----------------0----|
-------3---------3----|-------3---------3-----|-------2---------2----|
--2-------------------|--1--------------------|--0-------------------|


  Q    Q    Q    E  S S    Q    Q    Q    Q       Q    Q    Q    Q     
------------------------|----------------------|----------------------|
------------------------|----------------------|--3----1----0---------|
------------2-------0-2-|--0-------------------|------------0---------|
-------2---------2------|------------4---------|-------0---------0----|
--4---------------------|-------0---------0----|----------------------|
------------------------|--0-------------------|--5-------------------|


  Q    Q    Q    E  E     Q    Q    Q    E  E     Q    Q    Q    Q     
-----------------------|-----------------------|--3-------------------|
-----------------0--1--|--3----1----0----------|------------1---------|
--2---------2----------|------------0-------0--|------------0---------|
-------0----4----0-----|-------0---------0-----|----------------------|
-----------------------|-----------------------|-------3---------3----|
--4--------------------|--3--------------------|--2-------------------|


            ^                                              ^         
  Q    Q    Q    E  E     Q    Q    Q    Q       Q    Q    H         
--3---------5----L--7--|--8----7--------------|------------5--------|
-----------------------|------------8---------|------------5--------|
------------5----L-----|------------0----7----|--6---------6--------|
------------5----L-----|-------0----9----0----|------------7--------|
-------3---------------|----------------------|-------7-------------|
--1--------------------|--0-------------------|--7------------------|


                                ^                             
  W                   Q    Q    H           W                 
--L----------------|------------5--------|--L----------------|
--L----------------|------------7--------|--L----------------|
--L----------------|--5---------7--------|--L----------------|
--L----------------|------------7--------|--L----------------|
-------------------|-------5-------------|-------------------|
-------------------|--0------------------|-------------------|


  E  E  E  E  E  E  E  E     E  E  E  E  Q    E  E     E  E  E  E  E  E  E  E   
--------------3-----------|-------------------------|--------3-----2-----------|
--3-----3--------3-----3--|--3-----1-----0----L--1--|--3-----------------3-----|
-----0-----0--------0-----|-----0-----0-------------|-----2-----2-----2-----2--|
--------------------------|-------------------------|--------------------------|
--3-----------------------|--3----------------------|--2-----------------------|
--------------------------|-------------------------|--------------------------|


  E  E  E  E  E  E  E  E     E  E  E  E  E  E  E  E     E  E  E  E  Q    E  E   
--------------------------|--------------3-----------|-------------------------|
-----------3-----------3--|--3-----3--------3-----3--|--3-----1-----0----L--1--|
--------2-----------2-----|--0-----------------------|--------------0----L-----|
-----4-----------2--------|-----2-----2--------2-----|--------0----------------|
--2-----------0-----------|--0-----------------------|-----0-----0-------------|
--------------------------|--------------------------|--0----------------------|


  E  E  E  E  E  E  E  E     E  E  E  E  E  E  E  E   
--------------------------|--------------------------|
--0--------0--3--0--------|-----------0--3--0--------|
--------0-----------0-----|--0-----0-----------0-----|
-----0-----------------0--|-----0-----------------0--|
--------------------------|--------------------------|
--5-----------------------|--5-----------------------|


  ^                          ^                        
  E  E  E  E  E  E  E  E     E  E  E  E  Q    E   E   
--------------3-----------|--------------------------|
--3-----3-----------3-----|--3-----1-----0----L--13--|
--0--0-----0-----0-----0--|--0--0-----0--------------|
--2-----------------------|--2-----------------------|
--3-----------------------|--3-----------------------|
--------------------------|--------------------------|


     NH    NH    NH    NH    NH    NH    NH                          
     E     E     E     E     E     E     E  E     H        H         
----------------15----------14-----------------|--------------------|
----15----------------------------------15--L--|--L-----------------|
--------------<>12--------<>12-----------------|--------------------|
--------------------<>12--------<>12--<>12--L--|--L-----------------|
--------<>12--------------------------<>12--L--|--L-----------------|
--<>12-----------------------------------------|--------------------|


   ^           ^              ^           ^                              
   E  E  E  E  E  E  E  E     E  E  E  E  H           H        H         
--10-----------8-----------|--7-----------5--------|--L-----------------|
---8-----------5-----------|--0-----------7--------|--L-----------------|
---7--------7--5--------5--|-----------0-----------|--------------------|
---------7-----5-----5-----|--0-----0-----7--------|--L-----------------|
------7-----------5--------|-----0-----------------|--------------------|
---7-----------------------|-----------------------|--------------------|


  Q    Q    H           H.           E  E     Q    Q    Q.     E   
---------------------|---------------------|----------------------|
--3----1----0--------|---------------0--1--|--3----1----0---------|
------------0--------|--2------------------|------------0------0--|
-------0-------------|---------------------|-------0--------------|
---------------------|---------------------|----------------------|
--5------------------|--4------------------|--3-------------------|


  W                   Q    Q    Q    Q       Q    Q    Q    Q     
--3----------------|----------------------|--3-------------------|
-------------------|--1---------1----4----|-------1----4----8----|
-------------------|-------0--------------|----------------------|
-------------------|----------------------|----------------------|
-------------------|--3-------------------|----------------------|
--2----------------|----------------------|----------------------|


  ^                   ^                                             
                      |--3--|                                  ---  
  W                   E  E  E  H.                                   
--8----------------|--7--5--7--L------------|---------------|-----||
--8----------------|------------------------|---------------|-----||
--5----------------|------------------------|---------------|-----||
--5----------------|--5---------------------|---------------|-----||
-------------------|--5---------------------|---------------|-----||
-------------------|--5---------------------|---------------|-----||




Duration Legend
---------------
W - whole
H - half
Q - quarter
E - 8th
S - 16th
T - 32nd
X - 64th
. - note dotted
|-n-|  - n-tuplets


Tablature Legend
----------------
L - tied note
x - dead note
g - grace note
(n) - ghost note
> - accentuded note
NH - natural harmonic
AH - artificial harmonic
TH - tapped harmonic
SH - semi harmonic
PH - pitch harmonic
h - hammer on
p - pull off
b - bend
br - bendRelease
pb - preBend
pbr - preBendRelease
brb - bendReleaseBend
\n/ - tremolo bar dip
\n - tremolo bar dive
-/n - tremolo bar Release up
/n\ - tremolo bar inverted dip
/n - tremolo bar return
-\n - tremolo bar Release down
S - shift slide
s - legato slide
/ -  slide into from below or out of upwards
\ -  slide into from above or out of downwards
~ - vibrato
W - wide vibrato
tr - trill
TP - tremolo picking
T - tapping
S - slap
P - pop
< - fade in
^ - brush up
v - brush down
Login or Register to remove this ad.

3 comments on Seiken he no Kibou

Like I said before, awesome

5

Like I said before, awesome arrangement.

I can't remember if the flute part matched the range of your ocarina. You should really record it if it does.

Its D tuning btw. I like to

5

Its D tuning btw. I like to play your tab (I just use a std tuning transposed version only for convenient reason)

This is great

5

This is very pretty. Excellent.