Ads

Star Stealing Girl (Chrono Cross) Guitar Tab

Submitted: May 02, 2015 by scarecrowlol

5
Average: 5 (6 votes)
Download | Listen
Game: Chrono Cross
Composer(s): Yasunori Mitsuda
Style: Arrangement, Fingerstyle
Series: Chrono

This song is also called The Girl Who Stole the Stars, Kid's Theme

AutoScroll: Slow | Medium | Fast
Title: Star Stealing Girl
SubTitle: Chrono Cross
Artist: Yasanori Mitsuda
Tabber: Mitch Jackson
Tempo = 118
T/S = 4/4

                           |-3-|
      Q     Q     Q.       S S S      H.                E  S S      Q     Q     Q     Q          Q     Q     E  E  E  S S
E ||-------------------------------|-----------------------------|--------------3-------------|--------------2--3--2--2p0---|
B ||--3------------------------3p--|--0-----------------L--------|--3-----------3-----1-------|--L-----------3--------------|
G ||o-------0----------------2-----|-----------------------2p0---|--------0-------------------|--------0--------------------|
D ||o-------------4--------5-------|-----------------------------|----------------------------|-----------------------------|
A ||--------2----------------------|-----------------------------|--3-------------------------|-----------------------------|
E ||--0----------------------------|-----------------------------|----------------------------|-----------------------------|

                                                               ^       
     Q     Q     Q     Q          H           Q     Q          Q     Q     Q     E  S S      H           H
  |----------------------------|----------------------------|--2-----------------0--------|----------------------------|
  |--3-----------------0-------|--L-------------------------|--3-----------1-----3--------|----------------------------|
  |--------0-------------------|--------------2-----0-------|--2-----0--------------0-----|--0-----------2-------------|
  |--------------4-------------|----------------------------|-------------------------2---|----------------------------|
  |--------2-------------------|----------------------------|--3--------------------------|----------------------------|
  |--0-------------------------|----------------------------|-----------------------------|----------------------------|

     ^
     Q     Q     Q     Q          W                            Q     Q     Q     Q          Q     Q     E  E  Q
  |--------3-----2-------------|----------------------------|--------------3-------------|--------------2--3--2-------|
  |--0-----------------0-------|--L-------------------------|--3-----------3-----1-------|--------------3-----1-------|
  |--0-----------------0-------|--L-------------------------|--------0-------------------|--2-----0-------------------|
  |--------------4-------------|----------------------------|----------------------------|----------------------------|
  |--------2-------------------|----------------------------|--3-------------------------|----------------------------|
  |--0-------------------------|----------------------------|----------------------------|----------------------------|


     Q     Q     Q     Q          H           Q     Q          Q     Q     Q     Q          Q     Q     Q     Q
  |----------------------------|----------------------------|--2-----------------0-------|--L-------------------------|
  |--3-----------------0-------|--L-----------3-------------|--3-----------1-----3-------|--L-----------1-----3-------|
  |--4-----0-----------0-------|--L-----------2-----0-------|--------0-------------------|--------0-------------------|
  |--------------4-------------|----------------------------|----------------------------|----------------------------|
  |--------2-------------------|----------------------------|--3-------------------------|----------------------------|
  |--0-------------------------|----------------------------|----------------------------|----------------------------|


     Q     Q     Q     Q          H           Q     Q          Q     Q     Q     Q          Q     Q     E  E  E  E
  |--5-----------------3-------|--L-------------------------|--7-----------3-----0-------|--L--------------0--2--3----|
  |--3-----------------0-------|--L-------------------------|--------------3-------------|--------------3-----1-------|
  |--------0-------------------|--------------2-----0-------|--------0-----------5-------|--L-----0-------------------|
  |--------------4-------------|----------------------------|----------------------------|----------------------------|
  |--------2-------------------|----------------------------|--3-------------------------|----------------------------|
  |--0-------------------------|----------------------------|----------------------------|----------------------------|

 
     Q     Q     Q     Q          Q     Q     Q     Q          Q     Q     Q     Q          Q     Q     Q     Q
  |--5-----3-----2-----3-------|--L-------------------------|--2-----------------0-------|--L-------------------------|
  |--------0-----------0-------|--L-----------0-----3-------|--3-----------1-------------|--------------1-----3-------|
  |--------------2-------------|--------2-------------------|--------0-----------0-------|--L-----0-------------------|
  |----------------------------|----------------------------|----------------------------|----------------------------|
  |----------------------------|----------------------------|--3-------------------------|----------------------------|
  |--0-------------------------|----------------------------|----------------------------|----------------------------|

                                                                           
     Q     Q     Q     E  E       H           Q     E  E       Q     Q     Q     E  E       H           Q     Q
  |----------------------------|----------------------------|----------------------------|----------------------------|
  |--3-----------------1p-0----|----------------------------|--3-----------------1p-0----|----------------------------|
  |--------------4-------------|--0-------------------------|--0-----------0-------------|--2-----------0-----2-------|
  |--------2-------------------|--2-------------------------|----------------------------|----------------------------|
  |--0-------------------------|--------------------3p-2----|--------3-------------------|--3-----------2-------------|
  |----------------------------|--------------0-------------|--1-------------------------|----------------------------|

 
     E  E  Q     Q     Q          Q     Q     Q     Q          Q     Q     Q     Q          Q     Q     Q     Q
  |----------------------------|--2-----------0-----2-------|--3-----------2-------------|--0-------------------------|
  |--------------0-------------|--0-----------0-------------|--0-----------0-------------|--0-----------0-----3-------|
  |--0-----0-----0-------------|--0-----------0-------------|--0-----------0-------------|--2-----------0-------------|
  |-----4--------4-------------|----------------------------|--------------4-------------|--4-----------4-------------|
  |--------2-----------2-------|--------2-----------2-------|--------2-----------2-------|--------2-----------2-------|
  |--0-------------------------|----------------------------|--0-------------------------|----------------------------|

    
     Q     Q     Q     E  E       H           Q     E  E       Q     Q     Q     E  E       H           Q     Q
  |----------------------------|----------------------------|----------------------------|----------------------------|
  |--3-----------------1p-0----|----------------------------|--3-----------------1p-0----|----------------------------|
  |--------------4-------------|--0-------------------------|--0-----------0-------------|--2-----------0-----2-------|
  |--------2-------------------|--2-------------------------|----------------------------|----------------------------|
  |--0-------------------------|--------------------3p-2----|--------3-------------------|--3-----------2-------------|
  |----------------------------|--------------0-------------|--1-------------------------|----------------------------|

                                                                           
     E  E  Q     Q     Q          Q     Q     Q     E  S S      Q     Q     Q     Q          Q     Q     Q     Q
  |----------------------------|--2-----------2--------------|--0-------------------------|----------------------------|
  |--------------0-------------|--0-----------0----------0---|--------------0-------------|--0-----------0-------------|
  |--0-----0-----0-------------|--0-----------0--------2-----|--------------2-------------|--0-----------2-------------|
  |-----4--------4-------------|-----------------------------|--------------4-------------|--4-----------4-------------|
  |--------2-----------2-------|--------2-----------2--------|--------2-----------2-------|--------2-----------2-------|
  |--0-------------------------|-----------------------------|--0-------------------------|----------------------------|

                                                                ^      
     Q     Q     Q     Q          Q     Q     H                 Q     Q     Q     Q          Q     Q     H
  |--0-------------------------|--------------2--------------|--0-------------------------|--------------2-------------|
  |--0-----------0-------------|--------------3--------------|--1-----------0-----3-------|--L-------------------------|
  |--------------------2-------|--------------4--------------|----------------------------|--------------4-------------|
  |--------2-------------------|--------4--------------------|--------2-------------------|--------4-------------------|
  |--0-----------------2-------|--L--------------------------|--0-----------------2-------|--L-------------------------|
  |----------------------------|-----------------------------|----------------------------|----------------------------|

     ^                                                          ^  
     Q     Q     Q     Q          Q     Q     H                 Q     Q     Q     Q          Q     Q     Q     Q 
  |--3-----------------5-------|--L--------------------------|--0-------------------------|----------------------------|
  |--5-----------------3-------|--L-----------3--------------|--0-------------------------|----------------------------|
  |--------------4-------------|--------------4--------------|--2-------------------------|--------------2-------------|
  |--------2-------------------|--------4--------------------|--------------2-------------|--4-----------------4-------|
  |--0-----------------2-------|--L--------------------------|--------2-----------2-------|--------2-------------------|
  |----------------------------|-----------------------------|--0-------------------------|----------------------------|

                                  ^                                                   |-3-|
     Q     Q     Q     Q          W                              Q     Q     Q.       S S S      H.                E  S S
  |----------------------------|--0--------------------------||-------------------------------|-----------------------------|
  |----------------------------|--0--------------------------||--3------------------------3p--|--0-----------------L--------|
  |--------------------2-------|--1-------------------------o||--------0----------------2-----|-----------------------2p0---|
  |--------------2-------------|--2-------------------------o||--------------4--------5-------|-----------------------------|
  |--------2-------------------|--2--------------------------||--------2----------------------|-----------------------------|
  |--0-------------------------|--0--------------------------||--0----------------------------|-----------------------------|


     Q     Q     Q     Q          Q     Q     E  E  E  S S      Q     Q     Q     Q          H           Q     Q
  |--------------3-------------|--------------2--3--2--2p0---|----------------------------|----------------------------|
  |--3-----------3-----1-------|--L-----------3--------------|--3-----------------0-------|--L-------------------------|
  |--------0-------------------|--------0--------------------|--------0-------------------|--------------2-----0-------|
  |----------------------------|-----------------------------|--------------4-------------|----------------------------|
  |--3-------------------------|-----------------------------|--------2-------------------|----------------------------|
  |----------------------------|-----------------------------|--0-------------------------|----------------------------|

     ^                                                          ^         
     Q     Q     Q     E  S S      H           H                W                            W
  |--2-----------------0--------|----------------------------|--2-------------------------|--L-------------------------||
  |--3-----------1-----3--------|----------------------------|--0-------------------------|--L-------------------------||
  |--2-----0--------------0-----|--0-----------2-------------|--0-------------------------|--L-------------------------||
  |-------------------------2---|----------------------------|--4-------------------------|--L-------------------------||
  |--3--------------------------|----------------------------|--2-------------------------|--L-------------------------||
  |-----------------------------|----------------------------|--0-------------------------|--L-------------------------||

Login or Register to remove this ad.

3 comments on Star Stealing Girl

This is fantastic! I might

This is fantastic! I might have to play this at the open mic I've been going to

In the past I though too bad

5

In the past I though too bad the lonlonjp tab was removed ...
Here's an example of recording by Ennea : http://www.gametabs.net/recording/ennea/girl-who-stole-stars-lonlonjp
Nevemore here's finally a new one, Thanks to you for the great job.
This tune sounds really pretty on guitar ^^

I wasn't around when this

I wasn't around when this site had lonlon's tabs on it so i never caught what his arrangement was like :O Thank you glad you like it!