Ads

Star Stealing Girl (Chrono Cross) Guitar Tab

Submitted: Jun 09, 2013 by Colin_spade

5
Average: 5 (8 votes)
Download | Listen
Game: Chrono Cross
Composer(s): Yasunori Mitsuda
Style: Arrangement, Fingerstyle
Series: Chrono

This song is also called The Girl Who Stole the Stars, Kid's Theme

AutoScroll: Slow | Medium | Fast
Star Stealing Girl                                


                                                                Yasunori Mitsuda
Track 1



              |--3-|                                            
     E  E  E  S  S S Q.     S S    E  E  E  E  E  E  E  S T  T  
E||-----------------------------|--------3-----------2----2p-0-|
B||--3-------------3-0----------|--3-----3--1--L-----3---------|
G||-----0-----0h-2----------2-0-|-----0------------------------|
D||--------4--------------------|--------------------0---------|
A||-----2--5--------------------|--3--------------------3------|
E||--0--------------------------|-----------------3------------|


  E  E  E  Q.     E  E     E  E  E.  T T Q    Q       E  E  E  E  H         
------------------------|--------------------------|-----------------------|
--3--------0------------|--------------------------|--0--------------------|
------------------2--0--|--2---------0---0----2----|-----------------------|
--------0---------------|--4-----------2-----------|--------0--------------|
-----2-----2------------|--3-----3-----------------|-----2-----2--L--------|
--0---------------------|-----3--------------------|--0--------------------|


  E  E  E  E  E  E  E  E     E  E  E  E  Q    E  E     E  E  E  E  E  E  E  E   
--------------------------|-------------------------|--2--------0--------------|
--3-----------------------|--0----------------3-----|--------1--3--L-----------|
--------------2-----------|-------------------2--0--|-----0--------------------|
--------0-----------0-----|--------0----------------|-----------------------0--|
--3--------3-----------3--|-----2-----2--L----------|--3-----------------3-----|
-----3-----------3--------|--0----------------------|-----------------3--------|


  E  E  E  E  Q    E  E     E  E  E  E  E  E  S S S S  
--5--------3-------------|--7--------0--L-------0-2-3-|
-------------------------|--------------------3-------|
-------------------2--0--|-----0----------------------|
--------0----------------|--------0-----------0-------|
-----2-----2--L----------|--3--------3------------3---|
--0----------------------|-----------------3----------|


  E  E  E  E  E  E  E  E     E  E  E  E  E  E  E  E     E  E  E  S S Q    Q     
--5--------3--L-----------|--2--------0--L-----------|-------------------------|
-----------0--L-----------|--3-----1--1--L-----------|--3--------1-0-----------|
-----------0--L-----------|-----0-----0--L-----------|---------------0---------|
--------4--------------0--|-----------------------0--|---------------0---------|
-----2-----------0--2-----|--3-----------------3-----|--0-----2--3-------------|
--0-----------------------|-----------------3--------|-----0--------------3----|


  E  E  E  S S Q    E  E     S S E  E  E  E  E  E  E   
--------------------------|---------------------------|
--3--------1-0------------|---------0-----0-----0-----|
--------0------2----0--2--|--0---0--0-----0-----0-----|
--------------------------|----4----4-----4-----4-----|
-----3-----0--------------|------2--------------------|
--1------------3----1-----|--0---------0-----0-----0--|


  E  E  E  E  E  E  E  E     E  E  E  S S Q    Q       E  E  E  S S Q    E  E   
--------------------------|-------------------------|--------------------------|
--------0-----0-----0-----|--3--------1-0-----------|--3--------1-0------------|
--------0-----2-----4-----|---------------0---------|--------0------2----0--2--|
--------4-----4-----4-----|---------------0---------|--------------------------|
-----2--------------------|--0-----2--3-------------|-----3-----0--------------|
--0--------0-----0-----0--|-----0--------------3----|--1------------3----1-----|


  S S E  E  E  E  E  E  E     E  E  E  E  E  E  E  E   
---------------------------|--------------------------|
---------0-----0-----0-----|--------0-----0-----0-----|
--0---0--0-----0-----0-----|--------0-----0-----2-----|
----4----4-----4-----4-----|--------4-----4-----4-----|
------2--------------------|-----2--------------------|
--0---------0-----0-----0--|--0--------0-----0-----0--|


  E  E  E  E  E  E  Q       E  E  E  E  E  E  Q       E  E  E  E  E  E  Q     
-------------------------|-------------------------|-------------------------|
--0-----------------3----|--0----------------------|--0-----------------3----|
-----------2-------------|-----------2-------------|-----------2-------------|
-------------------------|--------------------4----|-------------------------|
--0-----2--2--L-----2----|--0-----2--2--L-----2----|--0-----2--2--L-----2----|
-----0-----------2-------|-----0-----------2-------|-----0-----------2-------|


  ^                          ^           ^          
  E  E  E  E  E  E  E  E     E  E  E  E  H          
--0-----------------------|--0-----------0--------||
--0-----------------------|--0-----------0--------||
--2-----------------------|--1--------2--1--------||
--------2-----4-----2-----|--------2-----2--------||
-----2-----2-----2-----2--|-----2--------2--------||
--0-----------------------|--0-----------0--------||




Duration Legend
---------------
W - whole
H - half
Q - quarter
E - 8th
S - 16th
T - 32nd
X - 64th
. - note dotted
|-n-|  - n-tuplets


Tablature Legend
----------------
L - tied note
x - dead note
g - grace note
(n) - ghost note
> - accentuded note
NH - natural harmonic
AH - artificial harmonic
TH - tapped harmonic
SH - semi harmonic
PH - pitch harmonic
h - hammer on
p - pull off
b - bend
br - bendRelease
pb - preBend
pbr - preBendRelease
brb - bendReleaseBend
\n/ - tremolo bar dip
\n - tremolo bar dive
-/n - tremolo bar Release up
/n\ - tremolo bar inverted dip
/n - tremolo bar return
-\n - tremolo bar Release down
S - shift slide
s - legato slide
/ -  slide into from below or out of upwards
\ -  slide into from above or out of downwards
~ - vibrato
W - wide vibrato
tr - trill
TP - tremolo picking
T - tapping
S - slap
P - pop
< - fade in
^ - brush up
v - brush down
Login or Register to remove this ad.

1 comment on Star Stealing Girl

Solid! I might still go for

Solid! I might still go for a duet for performance for the thickness of texture but this does capture the essence. Very nice.