Ads

Radical Dreamers (Chrono Cross) Guitar Tab

Submitted: Apr 01, 2016 by Lurker McHuge (Last updated: Apr 02, 2016)

5
Average: 5 (5 votes)
Download | Listen
Game: Chrono Cross
Composer(s): Yasunori Mitsuda
Style: Arrangement, Fingerstyle, Tremolo
Series: Chrono

AutoScroll: Slow | Medium | Fast
Chrono Cross-Radical Dreamers (Solo guitar)

(Note:The numbers on top of the measures are suggested fingerings)

     Q    E  E  E  E  E  E     Q    E  E  E  E  E  E     Q    E  E  E  E  E  E   
E||-------------------------|-------------------------|----------2--------------|
B||----------------0--------|----------------0--------|----------------3--------|
G||----------2-----------2--|----------2-----------2--|----------------------4--|
D||-------0-----------0-----|-------2-----------2-----|-------4-----------4-----|
A||-------------------------|--0----------0-----------|--2----------2-----------|
E||--3----------3-----------|-------------------------|-------------------------|


  E  E  E  E  E  E  E  E     Q    E  E  E  E  E  E     Q    E  E  E  E  E  E   
-----------2--------------|-------------------------|-------------------------|
-----2-----------2--------|----------------0--------|----------------0--------|
--------------------2-----|----------2-----------2--|----------2-----------2--|
--------4--------------4--|-------0-----------0-----|-------2-----------2-----|
--0-----------0-----------|-------------------------|--0----------0-----------|
--------------------------|--3----------3-----------|-------------------------|

 /1st Ending                                     /2nd Ending
  E  E  E  E  E  E  E  E     W                     Q    E  Q    E  E  E     W                 
--------------0-----------|--------------------||---------------0--------|-------------------|
-----------0-----0--------|--0-----------------||----------0-------0-----|--4----------------|
--------2-----------2-----|--1----------------*||------------------------|-------------------|
-----2-----------------2--|-------------------*||-------4-------------4--|-------------------|
--------------------------|--------------------||--2---------------------|--2----------------|
--0-----------------------|--0-----------------||------------------------|-------------------|


  Q    E  E  E  E  E  E     E  E  E  Q    E  E  E     Q    E  E  E  E  E  E   
-------------2--3-----5--|--L--0-------------------|----------2-----------L--|
-------------------------|-----------3----2--------|--2-------------3--------|
----------2--------------|----------------------2--|-------4--------------4--|
-------0-----------0-----|--------2----------2-----|-------------------4-----|
-------------------------|--0----------------------|--2----------2-----------|
--3----------3-----------|-------------------------|-------------------------|


  E  E  E  E  E  E  E  E     Q    E  E  E  E  E  E     E  E  E  Q    E  E  E   
--L--------2--------------|-------------2--3-----5--|--L--0-------------------|
-----2-----------2--------|-------------------------|-----------3----2--------|
--------------------2-----|----------2--------------|----------------------2--|
--------4--------------4--|-------0-----------0-----|--------2----------2-----|
--0-----------0-----------|-------------------------|--0----------------------|
--------------------------|--3----------3-----------|-------------------------|


                                            4  3     2                       
  Q    E  Q.     E  E     Q    E  S S E  E  E  E     Q    E  E  E  E  E  E   
--0--------------2-----|--L-------3-2-------------|-------------2--3-----5--|
----------0------------|--------------5--2--------|-------------------------|
--------------------0--|-----------------------3--|----------2--------------|
-------2---------------|-------4------------4-----|-------0-----------0-----|
-----------------------|--------------------------|-------------------------|
--0--------------------|--2-----------------------|--3----------3-----------|


                                                                  2        3   
  E  E  E  Q    E  E  E     Q    E  E  E  E  E  E     E  E  E  E  E  E  E  E   
--L--0-------------------|----------2-----------L--|--L--------2-----0--2-----|
-----------3----2--------|--2-------------3--------|-----2--------3--------3--|
----------------------2--|-------4--------------4--|--------------------------|
--------2----------2-----|-------------------4-----|--------4-----------------|
--0----------------------|--2----------2-----------|--0-----------0-----------|
-------------------------|-------------------------|--------------------------|


  2                                            CII                             
  Q    E  E  E  E  E  E     Q    E  E  Q    E  E      E  E  E  E  E  E  E  E   
----------------0--2--0--|--L----------0-----------|-----------2--------------|
--L----------3-----------|------------------3--2---|--L--------------2--------|
----------2--------------|----------2--------------|--------4-----------4--3--|
-------0-----------------|-------2-----------------|-----4--------------------|
-------------------------|--0----------0-----------|--------------------------|
--3----------3-----------|-------------------------|--2-----------2-----------|


                    2  3     2             2           4                      
  E  E  E  E  E  E  E  E     Q    E  E  E  E  E  E     Q    E  E  Q    E  E   
-----------2--------------|-------2--------3--------|--5-------0-------------|
-----------------2--------|-------------------------|------------------3-----|
--L-----3-----------3-----|----------2--------0-----|-------------2----------|
-----4-----------------4--|-------------0--------0--|-------2----------------|
--------------------------|-------------------------|--0---------------------|
--2-----------2-----------|--3----------------------|------------------------|


                                                                      2         
  E  E  E  E  E  E  E  E     E  E  E  E  E  E  E  E     Q    E  E  E  E  E  E   
-----------2-----------L--|--------------------------|-------2--------3--------|
--2-----------------3-----|-----3-----------2--------|-------------------------|
--------4--------------4--|--------2-----------2-----|----------2--------0-----|
-----4-----------4--------|-----------4-----------4--|-------------0--------0--|
--2-----------2-----------|--0-----------0-----------|-------------------------|
--------------------------|--------------------------|--3----------------------|


  1  4  1  3  2  0                                                      4  3   
  E  E  E  E  E  Q    E     E  E  E  E  E  E  E  E     Q    E  E  E  E  E  E   
--5--7-----------0-------|--0-----------------2-----|--L----------0-----------|
-----------7-------------|-----------0--------------|----------------2--------|
----------------------7--|--------0--------0-----0--|----------4-----------3--|
--------------7----------|-----2--------------------|-------4-----------4-----|
--0-----7----------------|--------------------------|-------------------------|
-------------------------|--0-----------0-----------|--2----------------------|


  2                         4                                                 
  Q    E  E  E  E  E  E     Q    E  E  Q    E  E     E  E  E  E  E  E  E  E   
-------2--------3--------|--5-------0-------------|-----------2-----------L--|
-------------------------|------------------3-----|--2-----------------3-----|
----------2--------0-----|-------------2----------|--------4--------------4--|
-------------0--------0--|-------2----------------|-----4-----------4--------|
-------------------------|--0---------------------|--2-----------2-----------|
--3----------------------|------------------------|--------------------------|


                                                                          CII  
  E  E  E  E  E  E  E  E     Q    E  E  E  E  E  E     Q    E  E  Q    E  E    
-----------------0--2-----|----------------0--2--0--|--L----------0-----------|
-----2--------3--------3--|--L----------3-----------|------------------3--2---|
--------2-----------------|----------2--------------|----------2--------------|
-----------4--------------|-------0-----------------|-------2-----------------|
--0-----------0-----------|-------------------------|--0----------0-----------|
--------------------------|--3----------3-----------|-------------------------|


                    4        4                                                                 
  E  E  E  E  E  E  E  E     E  E  E  E  Q    Q       Q   E  E   Q    Q       Q   E  E  Q     Q     
--------------------------|------------------------|-----------------------|---------0--L----------|
--L--------------2--------|-------------------0----|---------2---L---------|--0--------------------|
-----4-----2-----------2--|--L-----2--1------------|-----------------------|-----------------------|
--------4-----------4-----|-----4------------------|--4--------------------|------------------0----|
--------------------------|--4---------------------|--4--------------------|-----------------------|
--2-----------2-----------|--------------0---------|--2---2-----------0----|--4---4----------------|
										       

            4            1    1    3                                                        
  Q   E  E  Q   Q       Q    Q    Q    Q       Q    E  E  Q     Q       Q    E  E  Q    Q     
---------------------|----------------------|------------------------|-----------------------|
--2---L--------------|----------------------|----------2--L----------|----------5--L---------|
---------1--L---1----|--2----1----2---------|--2---------------------|--4--------------------|
---------------------|----------------------|--4---------------------|--2--------------------|
------------4---4----|----------------------|------------------------|-----------------------|
--0---0--------------|--2--------------0----|--2----2-----2-----2----|--4----4-----4----4----|


  Q    E  E  Q    Q       H        Q    Q       Q   E  E  Q    Q       Q   E  E   Q  Q     
----------4--L----2----|--L------------------|----------------------|---------0---L-------|
--2--------------------|---------------------|---------2--L---------|--0------------------|
--2--------------------|---------------------|----------------------|---------------------|
-----------------------|-----------6----2----|--4--------------2----|----------------0----|
--0----0-----0----0----|--4------------------|--5---5---------------|--4---4--------------|
-----------------------|---------------------|----------------------|---------------------|


                         1    1    3                                                           
  Q   E  E  Q    Q       Q    Q    Q    E  E     Q.     E  Q    E  E     Q.     Q    E  E  E   
----------------------|-----------------------|-----------------------|-----------------------|
--2-------------------|-----------------------|-----------------2--0--|--L-----------------2--|
---------1--L----1----|--2----1----2-------1--|--2------2-------------|-----------------2-----|
----------------------|-----------------4-----|--0--------------------|--------------2--------|
--0---0-----4----4----|-----------------------|------------0----------|--2--------------------|
----------------------|--2--------------------|-----------------------|---------0-------------|


                                             3       2                       
  Q.     E  Q    E  E     Q    E  E  Q    E  E       Q    E  E  E  E  E  E   
-----------------2--0--|--L-------5-------L-----||--------------------------|
--3------3-------------|-------3-----3----2--3--||---L-------------0--------|
-----------------------|------------------------||*----------2-----------2--|
--0--------------------|------------------------||*-------0-----------0-----|
-----------------------|--0---------------------||--------------------------|
------------3----------|------------------------||---3----------3-----------|


  Q    E  E  E  E  E  E     Q    E  E  E  E  E  E     E  E  E  E  E  E  E  E   
-------------------------|----------2--------------|-----------2--------------|
----------------0--------|----------------3--------|-----2-----------2--------|
----------2-----------2--|----------------------4--|--------------------2-----|
-------2-----------2-----|-------4-----------4-----|--------4--------------4--|
--0----------0-----------|--2----------2-----------|--0-----------0-----------|
-------------------------|-------------------------|--------------------------|

                                                    /1st Ending
  Q    E  E  E  E  E  E     Q    E  E  E  E  E  E     E  E  E  E  E  E  E  E   
-------------------------|-------------------------|--------------0-----------|
----------------0--------|----------------0--------|-----------0-----0--------|
----------2-----------2--|----------2-----------2--|--------2-----------2-----|
-------0-----------0-----|-------2-----------2-----|-----2-----------------2--|
-------------------------|--0----------0-----------|--------------------------|
--3----------3-----------|-------------------------|--0-----------------------|

                      /2nd Ending
  W                     E  E  E  E  E  E  E  E     W                   Q    E  E  E  Q    E   
--------------------||-----------0-----------0--|-------------------|----------------0----2--|
--0-----------------||--------0-----------0-----|--4----------------|-------------4----------|
--1----------------*||--------------------------|-------------------|------------------------|
-------------------*||-----4-----------4--------|--4----------------|----------4-------------|
--------------------||--2-----------2-----------|--2----------------|-------2----------------|
--0-----------------||--------------------------|-------------------|--0----L----------------|


                                  4              3                                             
  E  E  E  Q    Q.        Q    E  Q    Q.        Q    Q    Q    Q       Q    E  E  E  Q    E   
--L--------------------|----------------------|----------------------|----------------0----2--|
-----2-----0-----------|----------4----L------|--L----0--------------|-------------4----------|
----------------3------|--3----1--------------|-------1----3---------|------------------------|
-----------------------|----------------------|-----------------4----|----------4-------------|
--------4--------------|----------------------|----------------------|-------2----------------|
--2-----L--------------|--4----L--------------|--4---------2---------|--0----L----------------|


  E  E  E  Q    Q.        Q    E  Q.     Q       Q.     S S Q    Q     
--L--------------------|----------------------|-----------------------|
-----2-----0-----------|--2--------------2----|--4------5-4-2---------|
----------------3------|----------1-----------|--0--------------------|
-----------------------|----------------------|--1--------------------|
--------4--------------|--4-------------------|-----------------------|
--2-----L--------------|-------4--------------|------------------6----|


  Q    E  E  E  Q    E     E  E  E  Q    Q.        Q    E  E  E  E  Q     
----------------0----2--|--L--------------------|------------------------|
-------------4----------|-----2-----0-----------|----------4-----L-------|
------------------------|----------------3------|--3----1-----------1----|
----------4-------------|-----------------------|-------------1----------|
-------2----------------|--------4--------------|------------------------|
--0----L----------------|--2-----L--------------|--4----L----------------|


               1  4                           CII                          
  Q    Q    E  E  E  E     Q    Q    E  E  E  E      Q    Q    Q    E  E   
------------------------|-------------------------|-----------------------|
--L---------0--2--4--0--|--L------------2--4--2---|--L---------2----0-----|
------------------------|------------4------------|--------------------3--|
-------1----------------|------------2------------|------------4----------|
------------------4-----|-------2-----------------|-------4---------------|
--4---------2-----------|--0----------------------|--2--------------------|


                         4                2    1  2                    2                
  Q    Q    Q    Q       H        Q       Q    E  E  Q    Q       Q    E  E  Q    Q     
----------------------|----------------|----------2------------|--0-------5-------L----|
------------3---------|----------------|--0-------3-------L----|----------5-------L----|
--L---------0---------|--5--------2----|------------------0----|------------------2----|
-------0---------4----|--0-------------|-------------0---------|-------------2---------|
----------------------|----------------|-------2---------------|--0----4---------------|
--3-------------------|-----------2----|--3--------------------|-----------------------|


                                                 2    1  2             
  Q    E  E  Q    Q       Q    Q    Q    Q       Q    E  E  Q    Q     
--2--------------------|----------------------|----------2------------|
--2-------2-------2----|--3----2----3---------|--0-------3-------L----|
--2--------------------|--2--------------2----|------------------0----|
-------------4---------|--4--------------2----|-------------0---------|
-------4---------------|--2---------0---------|-------2---------------|
--2--------------------|----------------------|--3--------------------|


       2   4  CVII                                                        
                                             >                            
  Q    E   E  Q     Q       Q    E   E  Q    Q       Q    Q    Q    Q     
--0----------------------|-----------9-------7----|----------------------|
----------10--------L----|--7-------10------------|-------3----2---------|
-----------9-------------|------------------------|-------4---------2----|
--------------------7----|------------------------|-------4---------4----|
--0-----------7----------|-------9----------------|--2---------0---------|
-------9-----------------|--7---------------------|----------------------|


                               2  4  3            CII                     3                    
  Q    E  E  Q    Q       Q    E  E  Q    Q       Q    E  E  Q    Q       Q    Q    Q    Q     
----------2-------L----|--0--------------------|-----------------------|----------------------|
--0-------3-------L----|----------2-------L----|----------2-------2----|--3----2----3---------|
------------------0----|-------------2---------|--2--------------------|--4--------------2----|
-------------0---------|-------2----------2----|-------------4---------|-------4---------4----|
-------2---------------|--0--------------------|-------4----------4----|--2---------0---------|
--3--------------------|-----------------------|--2--------------------|----------------------|


          1                               2                                                
  Q    E  E  Q    Q       Q    E  E  Q    Q       W                   Q    Q    Q    Q     
----------2-------L----|--0--------------------|-------------------|----------------------|
--0-------3-------L----|-----------------------|--0----------------|-----------------2----|
-------------0---------|----------7-------6----|-------------------|------------2---------|
-------0----------0----|-----------------------|--4----------------|-------2--------------|
-----------------------|--0----7---------------|--7----------------|--2-------------------|
--3--------------------|-----------------------|--7----------------|----------------------|


  E  E  E  E  E  E  E  E     E  E  E  E  E  E  E  E     E  E  E  E  E  E  E  E   
-----------2--------------|-----------2--------------|-----------2--------------|
-----------------3--------|-----------------3--------|--------3--------3--------|
--------4-----------4-----|--------0--------------0--|-----2--------------2-----|
-----4-----------------4--|-----4--------------4-----|--0-----------0--------0--|
--2-----------2-----------|--------------------------|--------------------------|
--------------------------|--3-----------3-----------|--------------------------|


  E  E  E  E  E  E  E  E     E  E  E  E  E  E  E  E     E  E  E  E  E  E  E  E   
--------------------------|-----------2--------------|-----------2--------------|
-----------3-----2--------|-----------------3--------|-----------------3--------|
--------2-----------2-----|--------4-----------4-----|--------0-----------0-----|
-----2-----------------2--|-----4-----------------4--|-----4-----------------4--|
--0-----------0-----------|--2-----------2-----------|--------------------------|
--------------------------|--------------------------|--3-----------3-----------|

                                                          (optional tremolo part)
  E  E  E  E  E  E  E  E     E  E  E  E  E  E  E  E     S S S S S S S S S S S S S S S S  
-----------------0--------|-----------------0--------|----------------------------------|
-----------0--------------|-----0--------------------|----3-3-3---3-3-3---3-3-3---3-3-3-|
--------7--------------7--|--------6--------------6--|------------------4---------------|
-----7--------------7-----|-----------7--------7-----|----------4-----------------------|
--0-----------0-----------|--0-----------0-----------|--2-----------------------2-------|
--------------------------|--------------------------|----------------------------------|


  S S S S S S S S S S S S S S S S    S S S S S S S S S S S S S S S S  
--------------------0-0-0---0-0-0-|----2-2-2---2-2-2---2-2-2---2-2-2-|
----3-3-3---3-3-3-----------------|------------------3---------------|
------------------0---------------|----------2-----------------------|
----------4-----------------------|--0-----------------------0-------|
----------------------------------|----------------------------------|
--3-----------------------3-------|----------------------------------|


  S S S S S S S S S S S S S S S S    S S S S S S S S S S S S S S S S  
----0-0-0---0-0-0-----------------|----------------------------------|
--------------------2-2-2---2-2-2-|----3-3-3---3-3-3---3-3-3---3-3-3-|
------------------2---------------|------------------4---------------|
----------2-----------------------|----------4-----------------------|
--0-----------------------0-------|--2-----------------------2-------|
----------------------------------|----------------------------------|


  S S S S S S S S S S S S S S S S    S S S S S S S S S S S S S S S S  
----3-3-3---3-3-3---3-3-3---3-3-3-|----0-0-0---0-0-0---0-0-0---0-0-0-|
----------------------------------|----------------------------------|
------------------0---------------|------------------7---------------|
----------4-----------------------|----------7---------------7-------|
----------------------------------|--0-------------------------------|
--3-----------------------3-------|----------------------------------|


  S S S S S S S S S S S S S S S S    S S S S S S S S S S S S S S S S  
----------------------------------|----------------------------------|
----2-2-2---2-2-2---2-2-2---2-2-2-|----3-3-3---3-3-3---3-3-3---3-3-3-|
----------------------------------|------------------4---------------|
------------------4---------------|----------4-----------------------|
--0-------4---------------0-------|--2-----------------------2-------|
----------------------------------|----------------------------------|


  S S S S S S S S S S S S S S S S    S S S S S S S S S S S S S S S S  
--------------------0-0-0---0-0-0-|----2-2-2---2-2-2---2-2-2---2-2-2-|
----3-3-3---3-3-3-----------------|------------------3---------------|
------------------0---------------|----------2-----------------------|
----------4-----------------------|--0-----------------------0-------|
----------------------------------|----------------------------------|
--3-----------------------3-------|----------------------------------|


  S S S S S S S S S S S S S S S S    S S S S S S S S S S S S S S S S  
----0-0-0---0-0-0-----------------|----5-5-5---5-5-5---5-5-5---5-5-5-|
--------------------2-2-2---2-2-2-|----------------------------------|
------------------2---------------|------------------4---------------|
----------2-----------------------|----------4-----------------------|
--0-----------------------0-------|--2-----------------------2-------|
----------------------------------|----------------------------------|


  S S S S S S S S S S S S S S S S    S S S S S S S S S S S S S S S S  
----5-5-5---5-5-5---5-5-5---5-5-5-|----5-5-5---5-5-5---5-5-5---5-5-5-|
----------------------------------|----------------------------------|
------------------0---------------|------------------7---------------|
----------4-----------------------|----------7-----------------------|
----------------------------------|--0-----------------------0-------|
--3-----------------------3-------|----------------------------------|


  S S S S S S S S S S S S S S S S    S S S S S S S S S S S S S S S S  
----5-5-5---5-5-5---5-5-5---5-5-5-|----2-2-2---2-2-2---2-2-2---2-2-2-|
----------------------------------|----------------------------------|
------------------2---------------|------------------4---------------|
----------2-----------------------|----------4-----------------------|
--0-----------------------0-------|--2-----------------------2-------|
----------------------------------|----------------------------------|


  S S S S S S S S S S S S S S S S    S S S S S S S S S S S S S S S S  
----------------------------------|----------------------------------|
----0-0-0---0-0-0---0-0-0---0-0-0-|----------------------------------|
------------------0---------------|----2-2-2---2-2-2---2-2-2---2-2-2-|
----------4-----------------------|----------4---------------4-------|
----------------------------------|--5---------------5---------------|
--3-----------------------3-------|----------------------------------|


  S S S S S S S S S S S S S S S S    S S S S S S S S S S S S S S S S  
----0-0-0---0-0-0-----------------|----5-5-5---5-5-5---5-5-5---5-5-5-|
--------------------3-3-3---3-3-3-|----------------------------------|
----------------------------------|------------------4---------------|
----------2-------0---------------|----------4-----------------------|
--0-----------------------4-------|--2-----------------------2-------|
----------------------------------|----------------------------------|


  S S S S S S S S S S S S S S S S    S S S S S S S S S S S S S S S S  
----5-5-5---5-5-5---3-3-3---3-3-3-|----0-0-0---0-0-0---0-0-0---0-0-0-|
----------------------------------|----------------------------------|
------------------0---------------|------------------7---------------|
----------4-----------------------|----------7-----------------------|
----------------------------------|--0-----------------------0-------|
--3-----------------------3-------|----------------------------------|


  S S S S S S S S S S S S S S S S    Q    E  E  E  E  E  E     Q    E  E  E  E  E  E   
----------------------------------|-------------------------|-------------------------|
----2-2-2---2-2-2---2-2-2---2-2-2-|--3-------------0--------|----------------0--------|
------------------2---------------|----------2-----------2--|----------2-----------2--|
----------2-----------------------|-------0-----------0-----|-------2-----------2-----|
--0-----------------------0-------|-------------------------|--0----------0-----------|
----------------------------------|--3----------3-----------|-------------------------|


  Q    E  E  E  E  E  E     E  E  E  E  E  E  E  E     Q    E  E  E  E  E  E   
----------2--------------|-----------2--------------|-------------------------|
----------------3--------|-----2-----------2--------|----------------0--------|
----------------------4--|--------------------2-----|----------2-----------2--|
-------4-----------4-----|--------4--------------4--|-------0-----------0-----|
--2----------2-----------|--0-----------0-----------|-------------------------|
-------------------------|--------------------------|--3----------3-----------|


  Q    E  E  E  E  E  E     E  E  E  E  Q    E  E     E  E  E  E  E  E  E  E   
-------------------------|--------------0----------|--------------------------|
----------------0--------|--------3--0-------3--0--|-----2-----------2--------|
----------2-----------2--|-----2-------------------|-----------4-----------4--|
-------2-----------2-----|-------------------------|--------4-----------4-----|
--0----------0-----------|--2-----------2----------|--0-----------0-----------|
-------------------------|-------------------------|--------------------------|

                                
  Q    E  E  E  E  E  E     Q    E  E  E  E  E  E     Q    E  E  E  E  E  E   
-------------------------|-------------------------|----------2--------------|
----------------0--------|----------------0--------|----------------3--------|
----------2-----------2--|----------2-----------2--|----------------------4--|
-------0-----------0-----|-------2-----------2-----|-------4-----------4-----|
-------------------------|--0----------0-----------|--2----------2-----------|
--3----------3-----------|-------------------------|-------------------------|

                                                          rall.
  E  E  E  E  E  E  E  E     Q    E  E  E  E  E  E     E  E  E  E  E  E  E  E   
-----------2--------------|-------------------------|--------------0-----------|
-----2-----------2--------|----------------0--------|-----------0-----0--------|
--------------------2-----|----------2-----------2--|--------2-----------2-----|
--------4--------------4--|-------0-----------0-----|-----2-----------------2--|
--0-----------0-----------|-------------------------|--0-----------------------|
--------------------------|--3----------3-----------|--------------------------|


  W                  
-------------------||
--4----------------||
-------------------||
--4----------------||
--2----------------||
-------------------||




Duration Legend
---------------
W - whole
H - half
Q - quarter
E - 8th
S - 16th
T - 32nd
X - 64th
. - note dotted
|-n-|  - n-tuplets


Tablature Legend
----------------
L - tied note
x - dead note
g - grace note
(n) - ghost note
> - accentuded note
NH - natural harmonic
AH - artificial harmonic
TH - tapped harmonic
SH - semi harmonic
PH - pitch harmonic
h - hammer on
p - pull off
b - bend
br - bendRelease
pb - preBend
pbr - preBendRelease
brb - bendReleaseBend
\n/ - tremolo bar dip
\n - tremolo bar dive
-/n - tremolo bar Release up
/n\ - tremolo bar inverted dip
/n - tremolo bar return
-\n - tremolo bar Release down
S - shift slide
s - legato slide
/ -  slide into from below or out of upwards
\ -  slide into from above or out of downwards
~ - vibrato
W - wide vibrato
tr - trill
TP - tremolo picking
T - tapping
S - slap
P - pop
< - fade in
^ - brush up
v - brush down
Login or Register to remove this ad.

3 comments on Radical Dreamers

Great tab

5

Solid work, i remember back in my early days of learning fingerstyle attempting kabuki's version and struggling endlessly to play it. This looks a bit easier to play in parts, more diverse and sounds good. Would only suggest that bar 48 could be played like so -

|----------0--L---------|
|--0--------------------|
|-----------------------|
|--2--------------------|
|-----------------------|
|--4----4-----4----4----|

makes it a bit easier on the ol' fingers ;)

Beautiful. I also really like

5

Beautiful. I also really like the effort you seem to put into it with the fingerings and all, it also sounds pretty different from the other arrangements I know while still retaining the feeling of the song.

Great tab mate.

i thought i had overplayed

5

i thought i had overplayed this song years ago but this was such a fresh take it that i really enjoyed it. thanks.