Ads

Prisoners of Fate (Chrono Cross) Guitar Tab

Submitted: Jul 13, 2014 by thedstring (Last updated: Jul 15, 2014)

5
Average: 5 (9 votes)
Download | Listen
Game: Chrono Cross
Composer(s): Yasunori Mitsuda
Style: Arrangement, Fingerstyle
Series: Chrono

This song is also called People Seized With Life

AutoScroll: Slow | Medium | Fast
Chrono Cross
Prisoners of Fate - or - People Seized With Life
Composer: Yasunori Mitsuda
Arranger: Nate Brooks (thedstring)

Standard Tuning
Capo fret 3


     q  h      H        e  e  e  e  e  e  e  e       e  e  e  e  e  e  e  e
E |----------|-------|----------------------------|----------------------------|
B |--0-------|-------|--0-------------------------|----------------------------|
G |-----0----|-------|--------0-----0-------------|--0-------------------------|
D |--2-------|-------|-----2-----2--------0-------|--------2-----0-----2-------|
A |--0--3----|-------|--0--------------3-----3----|-----3-----3-----3-----3----|
E |-----1----|-------|--------------1-------------|----------------------------|


  e  q     e  e  q     e       e  q     e  e  q     e       e  e  e  e  e  e  e  e 
----------------------------|----------------------------|----------------------------|
--0-----------1-------------|----------------------------|--0-------------------------|
--------------0-------------|--------------0-------------|--------0-----0-------------|
-----2-----2-----0-----0----|-----0-----0-----0-----0----|-----2-----2--------0-------|
--0-------------------------|--3-----------3-------------|--0--------------3-----3----|
--------------1-------------|----------------------------|--------------1-------------|


  e  q     e  e  q     e       e  q     e  e  h            h           q      e  e
--------------0-------------|--0-----------0-------------|----------------------------|
-----------------3----------|-----3-----------3----------|-----------------------0----|
-----------2-----------2----|-----------2----------------|--------------------2-------|
-----0----------------------|----------------------------|----------------------------|
--0-------------------------|----------------------------|----------------------------|
--0--------------------0----|----------------------------|----------------------------|


  e  e  e  e  e  e  e  e       e  e  e  e  e  e  e  e       e  e  e  e  e  e  e  e
--------0-------------------|--------1-----1-----0-------|----------------------------|
--1-----------3-------------|--0--------------------3----|--0-----1-------------------|
--------------------2-------|-----------------0----------|-----0-----0--------2-------|
-----2-----2-----0-----0----|-----0-----0--3-------------|--------------2-------------|
--0-----------0-------------|--------------3-----2-------|--0--------------3-----3----|
--------------1-------------|--3-------------------------|--------------1-------------|


  e  e  e  e  e  e  e  e       e  e  e  e  e  e  e  e       e  e  e  e  e  e  e  e
--------------4-------------|--------0-------------------|--------1-----1-----0-------|
--------0-----3--------0----|--1--------0--3-------------|--0--------------------3----|
--0-----------------2-------|--------0-----------2-------|-----0-----0-----0----------|
-----0-----0----------------|-----2-----------3-----3----|--3-------------------------|
-----------------2----------|--0-------------------------|--------------3-----2-------|
--3-----------0-------------|--------------1-------------|--3-------------------------|


  e  e  e  e  e  e  e  e     e  s s s   e   e   e   e   e     e  s s s   e   e   e   e   e
--------------------------|--0-----------------------------|--------------------------------|
--1-----3-----0-----1-----|---------1-----------1----------|--3------0-------0--------------|
-----0-----0-----0-----0--|-------2-----2-----------2------|-------0-----------------1------|
--------------------------|-----3-----------3-----------3--|-----0-------0-------2-------4--|
--0-----------------------|--0-----------------------------|--2-----------------------------|
--------------3-----------|--1-----------------------------|-----------------0-----------0--|


  e  e  e  e  q     e          e  e  e  e  e  e  e  e       e  e  e  e  e  e  e  e
----------------------------|--0-----------------1-------|--0-------------------------|
--------------1-----3-------|--------1-----0-------------|--------3-----1-----0-------|
----------------------------|-----2-----2--------0-------|-----0-----0--------0-------|
--2--0--------------2-------|--------3--------0-----0----|--2-----2--------0-----0----|
--------3--2--3-------------|----------------------------|--0-----------2-------------|
----------------------------|--1-----------3-------------|--------------3-------------|


  e  e  e  e  e  e  e  e       e  e  e  e  e  e  q          q    q    q    q
----------------------------|----------------------------|--0--------------1-----|
--------------1-----3-------|--0-----------1-----3-------|-------1----0----------|
--2-----5--------0-----0----|--1-----------------0-------|--0--------------------|
-----3-----3----------------|--0--------------0----------|------------3----------|
--5-----------1-------------|-----3--2-----3-------------|--3--------------------|
----------------------------|--0-----------0-------------|--1---------3----------|

  q     q     q     e  e       H             H
--0-------------------------|-------------|--3----------|
--------3-----1-----0--1----|-------------|--0----------|
--0-------------------------|--2----------|--0----------|
--2-----------0-------------|-------------|--0----------|
--0-------------------------|--3----------|-------------|
--------------3-------------|--1----------|--3----------|

  e  e  e  e  e  e  e  e          H
--5-----------0--------0----|-----5-----------||
-----------3--------3-------|----5------------||
--2-----2--------2----------|---7-------------||
-----2----------------------|--7--------------||
--0-------------------------|-----------------||
----------------------------|-----------------||
                              roll this last chord
Login or Register to remove this ad.

7 comments on Prisoners of Fate

Yes, this is an arrangement,

Yes, this is an arrangement, I added a bunch of notes and my own ideas into this. Don't dock me for accuracy, it's specifically an Arrangement, not a transcription

I don't think anyone would,

I don't think anyone would, this is wonderful! 5 stars from me, at least.

Pointy elbows, 2/10, would

5

Pointy elbows, 2/10, would not bang. Wait what?

oh crap, I like to put this

5

oh crap, I like to put this under the title/game in the tab itself, so if anyone copy/pastes the credits are there

Composer: Yasunori Mitsuda
Arranger: Nate Brooks (thedstring)

Do you call yourself the D

Do you call yourself the D string because you're high-tension and the most likely to snap?

Or possibly the opposite, I'm

5

Or possibly the opposite, I'm usually the cool one =)

thedstring was my first ever screen name, it was used on AOL in the mid 90's, and I really liked it =)

i thought it was thed string

i thought it was thed string