Ads

On the Beach of Dreams - Another World (Chrono Cross) Bass/Guitar Tab

Submitted: Aug 04, 2010 by musenji (Last updated: Aug 04, 2010)

5
Average: 5 (4 votes)
Download | Listen
Game: Chrono Cross
Composer(s): Yasunori Mitsuda
Style: 2 or more instruments, Fingerstyle, Natural harmonics, Transcription, Trill
Series: Chrono

This song is also called Another World

AutoScroll: Slow | Medium | Fast
Another World
Chrono Cross
Composed by Yasunori Mitsuda
tabbed by musenji, 2010


This is for guitar trio and bass.  It contains all the parts, in "score" format.

Guitar 1: melody (viola/cello)
Guitar 2: synth vocals
Guitar 3: classical guitar
Bass: fretless bass

For guitar 2, tune: EADGCC# (so keep the bottom four strings the same).

For bass, the /7 in the sixth-to-last measure comes up from the fifth fret. 


Trills:

Trills are symbiont creatures that need humanoid hosts in order to survive.  Said
hosts are generally played by attractive females.  But in the music world:

10^ = 10h11p10, with the first note landing on the beat.

^5 = 5h6p5, with the last note landing on the beat.


* = beat
. = off-beat


I encourage everyone to buy the soundtrack!  Support the video game music industry.




-----------------|---------------------------------|---------------------------------|
-----------------|---------------------------------|---------------------------------|
-----------------|---------------------------------|---------------------------------|
-----------------|---------------------------------|---------------------------------|
-----------------|---------------------------------|---------------------------------|
-----------------|---------------------------------|---------------------------------|
 *   .   *   .     *   .   *   .   *   .   *   .     *   .   *   .   *   .   *   .
-----------------|---------------------------------|---------------------------------|
-----------------|---------------------------------|---------------------------------|
<7>--------------|<7>-----<7>-----<7>-----<7>------|<7>-----<7>-----<7>-----<7>------|
<7>--------------|<7>-----<7>-----<7>-----<7>------|<7>-----<7>-----<7>-----<7>------|
-----------------|---------------------------------|---------------------------------|
-----------------|---------------------------------|---------------------------------|
 *   .   *   .     *   .   *   .   *   .   *   .     *   .   *   .   *   .   *   .
-----------------|-------1-----0h1-------1-----0h1-|-------1-----0h1-------0---------|
-----------------|---------------------------------|-----------------------------3---|
-----------------|-----2-----2---------2-----2-----|---------------------------------|
-----------------|-0---------------0---------------|-----3-----3---------3-----3-----|
-----------------|---------------------------------|-1---------------1---------------|
-----------------|---------------------------------|---------------------------------|
 *   .   *   .     *   .   *   .   *   .   *   .     *   .   *   .   *   .   *   .
-----------------|---------------------------------|---------------------------------|
-----------------|---------------------------------|---------------------3-------3---|
-----------------|-5---------------------------3/5-|-1-----------------------1-------|
-------------5---|---------------------------------|---------------------------------|



---------------------------------|---------------------------------|
---------------------------------|---------------------------------|
---------------------------------|---------------------------------|
---------------------------------|---------------------------------|
---------------------------------|---------------------------------|
---------------------------------|---------------------------------|
 *   .   *   .   *   .   *   .     *   .   *   .   *   .   *   .
---------------------------------|---------------------------------|
<12>----<12>----<12>----<12>-----|<12>----<12>----<12>----<12>-----|
---------------------------------|<12>----<12>----<12>----<12>-----|
<7>-----<7>-----<7>-----<7>------|---------------------------------|
---------------------------------|---------------------------------|
---------------------------------|---------------------------------|
 *   .   *   .   *   .   *   .     *   .   *   .   *   .   *   .
-------5-----3h5-------6-----5---|-------3-----1h3-------1-----0---|
---------------------------------|---------------------------------|
-----5-----5---------5-----5-----|-----0-----0---------0-----0-----|
---------------------------------|---------------------------------|
-3---------------3---------------|-3---------------3---------------|
---------------------------------|---------------------------------|
 *   .   *   .   *   .   *   .     *   .   *   .   *   .   *   .
---------------------------------|---------------------------------|
-------------------------3/5\3---|---------------------------------|
-----------------------3---------|-3-----------------------3-5-3---|
-1-------------------------------|-----------------------3---------|



-----------------10--------------|---------------------------------|
---------------------------------|---------------------------------|
-7-------------------------------|-10----------------------7---10--|
---------------------------------|---------------------------------|
---------------------------------|---------------------------------|
---------------------------------|---------------------------------|
 *   .   *   .   *   .   *   .     *   .   *   .   *   .   *   .
---------------------------------|---------------------------------|
---------------------------------|---------------------------------|
<7>-----<7>-----<7>-----<7>------|<7>-----<7>-----<7>-----<7>------|
<7>-----<7>-----<7>-----<7>------|<7>-----<7>-----<7>-----<7>------|
---------------------------------|---------------------------------|
---------------------------------|---------------------------------|
 *   .   *   .   *   .   *   .     *   .   *   .   *   .   *   .
-------1-----0h1-------1-----0h1-|-------1-----0h1-------0---------|
---------------------------------|-----------------------------3---|
-----2-----2---------2-----2-----|---------------------------------|
-0---------------0---------------|-----3-----3---------3-----3-----|
---------------------------------|-1---------------1---------------|
---------------------------------|---------------------------------|
 *   .   *   .   *   .   *   .     *   .   *   .   *   .   *   .
---------------------------------|---------------------------------|
---------------------------------|-------------------------3-------|
-5---------------------------3/5-|-1---------------------------1---|
---------------------------------|---------------------------------|



---------------------------------|---------------------------------|
-10------------------11------10^-|-8-----------------------6---5---|
---------------------------------|---------------------------------|
---------------------------------|---------------------------------|
---------------------------------|---------------------------------|
---------------------------------|---------------------------------|
 *   .   *   .   *   .   *   .     *   .   *   .   *   .   *   .
---------------------------------|---------------------------------|
<12>----<12>----<12>----<12>-----|<12>----<12>----<12>----<12>-----|
---------------------------------|<12>----<12>----<12>----<12>-----|
<7>-----<7>-----<7>-----<7>------|---------------------------------|
---------------------------------|---------------------------------|
---------------------------------|---------------------------------|
 *   .   *   .   *   .   *   .     *   .   *   .   *   .   *   .
-------5-----3h5-------6-----5---|-------3-----1h3-------1-----0---|
---------------------------------|---------------------------------|
-----5-----5---------5-----5-----|-----0-----0---------0-----0-----|
---------------------------------|---------------------------------|
-3---------------3---------------|-3---------------3---------------|
---------------------------------|---------------------------------|
 *   .   *   .   *   .   *   .     *   .   *   .   *   .   *   .
---------------------------------|---------------------------------|
-------------------------3/5\3---|---------------------------------|
-----------------------3---------|-3-----------------------3-5-3---|
-1-------------------------------|-----------------------3---------|



-----------------10--------------|---------------------------------|
---------------------------------|---------------------------------|
-7-------------------------------|-10----------------------7---10--|
---------------------------------|---------------------------------|
---------------------------------|---------------------------------|
---------------------------------|---------------------------------|
 *   .   *   .   *   .   *   .     *   .   *   .   *   .   *   .
---------------------------------|---------------------------------|
---------------------------------|---------------------------------|
<7>-----<7>-----<7>-----<7>------|<7>-----<7>-----<7>-----<7>------|
<7>-----<7>-----<7>-----<7>------|<7>-----<7>-----<7>-----<7>------|
---------------------------------|---------------------------------|
---------------------------------|---------------------------------|
 *   .   *   .   *   .   *   .     *   .   *   .   *   .   *   .
-------1-----0h1-------1-----0h1-|-------1-----0h1-------0---------|
---------------------------------|-----------------------------3---|
-----2-----2---------2-----2-----|---------------------------------|
-0---------------0---------------|-----3-----3---------3-----3-----|
---------------------------------|-1---------------1---------------|
---------------------------------|---------------------------------|
 *   .   *   .   *   .   *   .     *   .   *   .   *   .   *   .
---------------------------------|---------------------------------|
---------------------------------|---------------------------------|
-5---------------------------3---|-1---------------------------1---|
---------------------------------|---------------------1-----------|



---------------------------------|---------------------------------|
-10------------------11------10^-|-8-----------------------6---5---|
---------------------------------|---------------------------------|
---------------------------------|---------------------------------|
---------------------------------|---------------------------------|
---------------------------------|---------------------------------|
 *   .   *   .   *   .   *   .     *   .   *   .   *   .   *   .
---------------------------------|---------------------------------|
<12>----<12>----<12>----<12>-----|<12>----<12>----<12>----<12>-----|
---------------------------------|<12>----<12>----<12>----<12>-----|
<7>-----<7>-----<7>-----<7>------|---------------------------------|
---------------------------------|---------------------------------|
---------------------------------|---------------------------------|
 *   .   *   .   *   .   *   .     *   .   *   .   *   .   *   .
-------5-----3h5-------6-----5---|-------3-----1h3-------1-----0---|
---------------------------------|---------------------------------|
-----5-----5---------5-----5-----|-----0-----0---------0-----0-----|
---------------------------------|---------------------------------|
-3---------------3---------------|-3---------------3---------------|
---------------------------------|---------------------------------|
 *   .   *   .   *   .   *   .     *   .   *   .   *   .   *   .
---------------------------------|---------------------------------|
-3----------/5--\3-----------3---|---------------------------------|
-----------------------3---------|-3-------------------3-------3---|
---------------------------------|-------------------------3-------|



---------------------------------|---------------------------------|
-----------------6---------------|^5-------------------------------|
-7-------------------------------|-----------------5---------------|
---------------------------------|-----------------------------7---|
---------------------------------|---------------------------------|
---------------------------------|---------------------------------|
 *   .   *   .   *   .   *   .     *   .   *   .   *   .   *   .
---------------------------------|---------------------------------|
---------------------------------|<12>----<12>----<12>----<12>-----|
<7>-----<7>-----<7>-----<7>------|<12>----<12>----<12>----<12>-----|
<7>-----<7>-----<7>-----<7>------|---------------------------------|
---------------------------------|---------------------------------|
---------------------------------|---------------------------------|
 *   .   *   .   *   .   *   .     *   .   *   .   *   .   *   .
---------------------------------|---------------------------------|
-------3-----1h3-------3-----1h3-|-------1-----0h1-------1-----0h1-|
---------------------------------|---------------------------------|
-----3-----3---------3-----3-----|-----2-----2---------2-----2-----|
-1---------------1---------------|-0---------------0---------------|
---------------------------------|---------------------------------|
 *   .   *   .   *   .   *   .     *   .   *   .   *   .   *   .
---------------------------------|---------------------------------|
---------------------------------|-------------2-------------------|
-1---------------------------1---|-0---------------0-------0-------|
---------------------------------|---------------------------------|



---------------------------------|---------------------------------|
---------------------------------|---------------------------------|
-5--h7---7-----------------------|---------------------------------|
---------------------------------|---------------------------------|
---------------------------------|---------------------------------|
---------------------------------|---------------------------------|
 *   .   *   .   *   .   *   .     *   .   *   .   *   .   *   .
---------------------------------|---------------------------------|
---------------------------------|---------------------------------|
<7>-----<7>-----<7>-----<7>------|<7>-----<7>-----<7>-----<7>------|
<7>-----<7>-----<7>-----<7>------|<7>-----<7>-----<7>-----<7>------|
---------------------------------|---------------------------------|
---------------------------------|---------------------------------|
 *   .   *   .   *   .   *   .     *   .   *   .   *   .   *   .
-------0---------------0---------|-------0---------------0---------|
-------------1h3-------------1h3-|-------------1h3-------------1h3-|
-----2-----2---------2-----2-----|-----2-----2---------2-----2-----|
-0---------------0---------------|-0---------------0---------------|
---------------------------------|---------------------------------|
---------------------------------|---------------------------------|
 *   .   *   .   *   .   *   .     *   .   *   .   *   .   *   .
---------------------------------|/7-------------------------------|
-------------7-------------------|-------7---5-7-------------------|
-5-----------------------5-------|-------------------------5-------|
---------------------------------|---------------------------------|



---------------------------------|---------------------------------|
-----------------6---------------|^5---------------8---------------|
---------7-----------------------|---------------------------------|
---------------------------------|---------------------------------|
---------------------------------|---------------------------------|
---------------------------------|---------------------------------|
 *   .   *   .   *   .   *   .     *   .   *   .   *   .   *   .
---------------------------------|---------------------------------|
---------------------------------|<12>----<12>----<12>----<12>-----|
<7>-----<7>-----<7>-----<7>------|<12>----<12>----<12>----<12>-----|
<7>-----<7>-----<7>-----<7>------|---------------------------------|
---------------------------------|---------------------------------|
---------------------------------|---------------------------------|
 *   .   *   .   *   .   *   .     *   .   *   .   *   .   *   .
---------------------------------|---------------------------------|
-------3-----1h3-------3-----1h3-|-------1-----0h1-------1-----0h1-|
---------------------------------|---------------------------------|
-----3-----3---------3-----3-----|-----2-----2---------2-----2-----|
-1---------------1---------------|-0---------------0---------------|
---------------------------------|---------------------------------|
 *   .   *   .   *   .   *   .     *   .   *   .   *   .   *   .
---------------------------------|---------------------------------|
---------------------------------|---------------------------------|
-----------8---------------------|-----------7---------------------|
-6---------------6-------6-------|-5---------------5-------5-------|



---------------------------------|---------------------------------|
---------8-------------------5h6-|-5-------------------------------|
-----------------7---------------|---------------------------------|
---------------------------------|---------------------------------|
---------------------------------|---------------------------------|
---------------------------------|---------------------------------|
 *   .   *   .   *   .   *   .     *   .   *   .   *   .   *   .
---------------------------------|<12>----<12>----<12>----<12>-----|
---------------------------------|---------------------------------|
<7>-----<7>-----<7>-----<7>------|---------------------------------|
<7>-----<7>-----<7>-----<7>------|<7>-----<7>-----<7>-----<7>------|
---------------------------------|---------------------------------|
---------------------------------|---------------------------------|
 *   .   *   .   *   .   *   .     *   .   *   .   *   .   *   .
---------------------------------|---------------------0---1---0---|
-------0---------------0---------|-------2-----0h2-3---------------|
-------------2h4-------------2h4-|---------------------------------|
-----0-----0---------0-----0-----|-----2-----2---------------------|
---------------------------------|-0-------------------------------|
-3---------------3---------------|---------------------------------|
 *   .   *   .   *   .   *   .     *   .   *   .   *   .   *   .
---------------------------------|---------------------------------|
---------------------------------|-------------------------5/7\5---|
-------------------------5-------|-----------------------5---------|
-3-------------------3-------3---|-5-------------------------------|



---------------------------------|
---------------------------------|
---------------------------------|
---------------------------------|
---------------------------------|
---------------------------------|
 *   .   *   .   *   .   *   .
<12>-----------------------------|
---------------------------------|
---------------------------------|
<7>------------------------------|
---------------------------------|
---------------------------------|
 *   .   *   .   *   .   *   .
---------------------------------|
---------------------------------|
---------------------------------|
---------------------------------|
---------------------------------|
---------------------------------|
 *   .   *   .   *   .   *   .
---------------------------------|
-------------5-------------------|
-------------------------7-------|
-5-------------------------------|


Login or Register to remove this ad.

4 comments on On the Beach of Dreams - Another World

You got the trills and slides

5

You got the trills and slides here spot on :)

One wrong note!

5

This is pretty much dead on, but in the third chord of the progression, you've got a C in the bass of the guitar part instead of an F. (Should be third fret on the D string, not the A string)

Oh man, if you're right, I

Oh man, if you're right, I squarely place the blame on this OCRemix which burned that C into the retina of my ear:

http://ocremix.org/remix/OCR00171/

Also that remix has the second F in measure 2 jumping up to an A on the 3rd string, which had me paranoid for a while that I had that note wrong.

Pretty solid, I can't see a

Pretty solid, I can't see a single thing wrong with this tab, it's rather awesome =)

If I ever wanted to make a recording of all the parts myself I'd use this tab!