Ads

On the Beach of Dreams - Another World (Chrono Cross) Guitar Tab

Submitted: Nov 27, 2012 by Jackimus

5
Average: 5 (6 votes)
Download | Listen
Game: Chrono Cross
Composer(s): Yasunori Mitsuda
Style: Arrangement, Fingerstyle
Series: Chrono

AutoScroll: Slow | Medium | Fast
Crono Cross
Another World
by Yasunori Mitsuda
arr by Jack William Wedge II 2011


Drop D, capo on 5th.
I've included accentuation for where you need to pronouce the melody.

             >     >     >     >                                           
             E  E  E  E  E  E  E  S  S      E  S S S S S S E  S S S S S S  
E||-------|----------------------------||---------------------------------|
B||-------|----------------------------||--------------0--------------0---|
G||-------|--2--2--2--2--2--2--2-------||*-------5-L-----5------5-L-----5-|
D||-------|--2--2--2--2--2--2--2-------||*-----2-----2--------2-----2-----|
A||-------|----------------------------||---0--------------0--------------|
D||-------|-----------------------2S-5-||-----------------------------5---|


  E  S S S S S S E  S S S S E     E  S S S S S S E  S S S S E   
-------------------------------|-------0-L-----0------------0--|
-------------0--------0-L------|-------------3--------6-L------|
-------5-L-----5------------2--|-----0-----0--------0-----0----|
-----2-----2--------2-----2----|-------------------------------|
-------------------------------|-------------------------------|
--3--------------3-------------|--5--------------5-------------|

                                  >              >
  E  S S S S S S E  S S S S E     E  S S S S S S E  S S S S S S  
-------------------------------|-----------------5--------------|
-------3-L-----3------------0--|-------1-L---0-1------------0---|
-------------5--------5-L------|--2-------------------5-L-----5-|
-----5-----5--------5-----5----|-----2-----2--------2-----2-----|
-------------------------------|--0--------------0--------------|
--5--------------5-------------|----------------------------5---|

  >                   >     >     >                   >     >
  E  S S S S S S E  S S S S E     E  S S S S S S E  S S S S E   
-------------------------------|--0----0-L-----0------------0--|
-------------0-----------------|-------------3--------6-L------|
--5----5-L-----5------2-L---5--|-----0-----0--------0-----0----|
-----2-----2--------2-----2----|-------------------------------|
-------------------------------|-------------------------------|
--3--------------3-------------|--5--------------5-------------|

  >              >          >     >              >       
  E  S S S S S S E  S S S S E     E  S S S S S S E  S S S S S S  
-------------------------------|-----------------5--------------|
--3----3-L-----3------------0--|-------1-L---0-1------------0---|
-------------5---5----5-L------|--2-------------------5-L-----5-|
-----5-----5--------5-----5----|-----2-----2--------2-----2-----|
-------------------------------|--0--------------0--------------|
--5--------------5-------------|----------------------------5---|

  >                   >     >     >                   >     >
  E  S S S S S S E  S S S S E     E  S S S S S S E  S S S S E   
-------------------------------|--0----0-L-----0------------0--|
-------------0-----------------|-------------3--------6-L------|
--5----5-L-----5------2-L---5--|-----0-----0--------0-----0----|
-----2-----2--------2-----2----|-------------------------------|
-------------------------------|-------------------------------|
--3--------------3-------------|--5--------------5-------------|

  >              >          >     >              >
  E  S S S S S S E  S S S S E     E  S S S S S S E  S S S S S S  
-------------------------------|--------------------------------|
--3----3-L-----3------------0--|-----------------1--------------|
-------------5---5----5-L------|--2----2-L---0-2------2-L---0-2-|
-----5-----5--------5-----5----|--------------------------------|
-------------------------------|-----3-----3--------3-----3-----|
--5--------------5-------------|--3--------------3--------------|

  >              >                 >  >  >
  E  S S S S S S E  S S S S S S    E  E  S S S S E  S S S S S S  
--------------------------------|-------------------------------|
--0-----------------------------|--------------0------0-L-----0-|
-------0-L-----0-0----0-L-----0-|--0--2--2---2--------------2---|
-------------4--------------2---|----------2--------2-----2-----|
-----2-----2--------2-----2-----|--0-------------0--------------|
--2--------------2--------------|-------------------------------|

                                          >       >
   E  S S S S E  E  S S S S S S    E  S S S S S S E  S S S S S S  
--------------------------------|--------------------------------|
----------------------0-L-----0-|-----------------1--------------|
--/2--0---------------------2---|---------2---0-2------2-L---0-2-|
--------2-L-0-2-----2-----2-----|-------3------------------------|
---0-------------0--------------|-----3-----3--------3-----3-----|
--------------------------------|--3--------------3--------------|

  >              >                        >       >          >
  E  S S S S S S E  S S S S S S    E  S S S S S S E  S S S S S S  
--------------------------------|--------------------------------|
--0--------------3--------------|---------3------------------0h1-|
-------0-L-----0------0-L-----0-|-----------------2--------------|
-------------4--------------4---|-------4-----2-4------4-L-------|
-----2-----2--------2-----2-----|-----0-----0--------0-----0-----|
--2--------------2--------------|--0--------------0--------------|

  >                                 >
  E  S S S S S S S S S S S S S S    Q.     Q.     Q                
---------------------------------|--0-------------------|
--0------------------0---1---0---|--0-------------------|
-------1-L-----1-2---------------|---------------------*|
-------------4-------------------|---------0-----------*|
-----2-----2-------2---2---2---2-|----------------2-----|
--2------------------------------|--2-------------------|




Duration Legend
---------------
W - whole
H - half
Q - quarter
E - 8th
S - 16th
T - 32nd
X - 64th
. - note dotted
|-n-|  - n-tuplets


Tablature Legend
----------------
L - tied note
x - dead note
g - grace note
(n) - ghost note
> - accentuded note
NH - natural harmonic
AH - artificial harmonic
TH - tapped harmonic
SH - semi harmonic
PH - pitch harmonic
h - hammer on
p - pull off
b - bend
br - bendRelease
pb - preBend
pbr - preBendRelease
brb - bendReleaseBend
\n/ - tremolo bar dip
\n - tremolo bar dive
-/n - tremolo bar Release up
/n\ - tremolo bar inverted dip
/n - tremolo bar return
-\n - tremolo bar Release down
S - shift slide
s - legato slide
/ -  slide into from below or out of upwards
\ -  slide into from above or out of downwards
~ - vibrato
W - wide vibrato
tr - trill
TP - tremolo picking
T - tapping
S - slap
P - pop
< - fade in
^ - brush up
v - brush down
Login or Register to remove this ad.

3 comments on On the Beach of Dreams - Another World

Very cool =)

Very cool =)

Might be one of the best

5

Might be one of the best versions of this song i've ever played

If you'd like to hear my

5

If you'd like to hear my recording of this:
https://www.youtube.com/watch?v=d7DSonH6xmI