Ads

Lost Before Light (Chrono Cross) Guitar Tab

Submitted: Jan 02, 2013 by thedstring

5
Average: 5 (4 votes)
Download | Listen
Game: Chrono Cross
Composer(s): Yasunori Mitsuda
Style: Arrangement, Fingerstyle
Series: Chrono

This song is also called A Light for Lost Hopes

AutoScroll: Slow | Medium | Fast
Previously Lost, Lamp

Chrono Cross

Composed by Yasunori Mitsuda
Tabbed by thedstring (Nate Brooks)


Drop D

    IV________  II_________       (half bar fret 2)
E|-----------5--4-------------|----------------------------|
B|-----4--5--------4-----2----|--4-----2--4-----2--4--2----|
G|--------6-----------4-------|--------2-----4-----2-------|
D|-----6-----6-----4-----4----|-----2-----2-----2-----2----|
A|--4-----------2-------------|--0-------------------------|
D|----------------------------|----------------------------|


  IV________  II_________       (half bar fret 2)
-----------5--4-------------|----------------------------|
-----4--5--------4-----2----|--4-----2--4-----2--4--2----|
--------6-----------4-------|--------2-----4-----2-------|
-----6-----6-----4-----4----|-----2-----2-----2-----2----|
--4-----------2-------------|--0-------------------------|
----------------------------|----------------------------|


  IV_____________________                  II_____
----------------------------|--4--------5--2--------0----|
-----------------4--5--7----|----------------------------|
-----------4--6-----4-------|--------4-----------4-------|
-----6--7-----6-------------|-----2-----------4----------|
-----4-----4-----4-----4----|--0-----------2-------------|
--4-------------------------|----------------------------|
  

  IV________                  ^ IV__
--------------0-----11------|-(-7------------------------||
--4-----4--5--9--7--0-------|-)-4------------------------||
-----------------8----------|-(-4------------------------||
-----6----------------------|-)-6------------------------||
--4--------------------11---|-(-4------------------------||
----------------------------|----------------------------||

In the 1st and 3rd measure, I like to play the both fret 5's
with my middle finger.  I know it's bad form, but its hard to hit
the correct notes without doing it.  You could instead stop
barring fret 4 and play the notes bar free.
Login or Register to remove this ad.

7 comments on Lost Before Light

Beautiful

Such a sweet short melody. Nice job!

I hope you find it accurate.

I hope you find it accurate. There's been a problem with accuracy in combining the 2 parts in this song's department in the past.

I do have the piano book. I

I do have the piano book. I could see if the song is in there and send you the chords
used in the song. The book literal will have every chord listed even if its 1 or 2 notes added.

Just FYI, Square's sheet

Just FYI, Square's sheet music books aren't always totally true to the original music.

I listened to the OST and

I listened to the OST and couldn't hear any more notes. Do you?

Very nice! And your footnote

5

Very nice! And your footnote was very relevant, thanks for the alternative. I was only seeing the second finger hop myself, not the "disengage barre" option. When I come back to this one I'll work on both and make a decision.

Playing it again, this tab is

5

Playing it again, this tab is seeeexy pants.