Home Guldove (Chrono Cross) Guitar Tab

Submitted: Sep 10, 2015 by BacardiBreezer

0
Download | Listen
Game: Chrono Cross
Composer(s): Yasunori Mitsuda
Style: Transcription, Trill
Series: Chrono

AutoScroll: Slow | Medium | Fast
Home World - Guldove (Galdove?)
Chrono Cross
Composed by Yasunori Mitsuda
Tabbed by BB 
9/2/2015

Hey everyone - Kabuki made an awesome fingerstyle tab for this, but for those of us 
with picks... I thought I would write out something simpler! What a wonderful song!

Intro

e|--------------|---------------|
B|--------------|---------------|
G|-------7--7---|--------7--7---|
D|--5-----------|---5-----------|
A|--------------|---------------|
E|--------------|---------------| x2

Lead

e|--10--7-----10--8---------8--7---------------------------------7---|
B|--------------------10-----------8--10------------------7-8-10-----|
G|-------------------------------------------------7----9------------|
D|-------------------------------------------------------------------|
A|-------------------------------------------------------------------|
E|-------------------------------------------------------------------|

e|--10--7-----10--8---------8--7------------------7---------|
B|--------------------10-----------8--10--------------10----|
G|----------------------------------------------------------|
D|----------------------------------------------------------|
A|----------------------------------------------------------|
E|----------------------------------------------------------|

e|-----------------------10---|---8-------7-------|----------------------------------------|
B|--7----8--10--8-------------|-------------10-8--|--10--8-------7-8------8h10p8p7----8~---|
G|--------------------7-------|-------------------|------------9---------------------------|
D|----------------------------|-------------------|----------------------------------------|
A|----------------------------|-------------------|----------------------------------------|
E|----------------------------|-------------------|----------------------------------------|

Rest four measures


e|--10--7-----10--8---------8--7---------------------------------7---|
B|--------------------10-----------8--10------------------7-8-10-----|
G|-------------------------------------------------7----9------------|
D|-------------------------------------------------------------------|
A|-------------------------------------------------------------------|
E|-------------------------------------------------------------------|

e|--10--7-----10--11--10----8--7------7--8-----8-7h8p7-------|
B|--------------------------------10-------------------10-8--|
G|-----------------------------------------------------------|
D|-----------------------------------------------------------|
A|-----------------------------------------------------------|
E|-----------------------------------------------------------|

e|--10--7-----10--8---------8--7---------------------------------7---|
B|--------------------10-----------8--10------------------7-8-10-----|
G|-------------------------------------------------7----9------------|
D|-------------------------------------------------------------------|
A|-------------------------------------------------------------------|
E|-------------------------------------------------------------------|

e|--10--7-----10--11--10----8--7------7--8-----8-7h8p7-------|
B|--------------------------------10-------------------10-8--|
G|-----------------------------------------------------------|
D|-----------------------------------------------------------|
A|-----------------------------------------------------------|
E|-----------------------------------------------------------|

e|-----------------------10---|---8-------7-------|----------------------------------------|
B|--7----8--10--8-------------|-------------10-8--|--10--8-------7-8------8h10p8p7----8----|
G|--------------------7-------|-------------------|------------9----------------------7----|
D|----------------------------|-------------------|----------------------------------------|
A|----------------------------|-------------------|----------------------------------------|
E|----------------------------|-------------------|----------------------------------------|

e|----------|------10-10----8p7-----|---------------------------|
B|--10---8--|--7-8--------------10--|--8-10-8----7--------------|
G|-------7--|-----------------------|---------------7-----------|
D|----------|-----------------------|-------------------7---9---|
A|----------|-----------------------|---------------------------|
E|----------|-----------------------|---------------------------|
                              TRILL
e|-----------------------------------|--------7-------7-8-----7-----------------------------|
B|----------------------------7tr8---|--8-10-------10-----------10-8-10-----10--------------|
G|------------7------9---------------|----------------------------------9-7----6-------7-9--|
D|--7--9--10-----10----10-7----------|------------------------------------------------------|
A|-----------------------------------|------------------------------------------------------|
E|-----------------------------------|------------------------------------------------------|

e|-------------------------|-------------------------|--------------------------|
B|--7----7-7----8-8--------|--5----5-5----6-6--------|--3----3-3----4-4---------|
G|--7----7-7----7-7-----7--|--5----5-5----5-5-----5--|--3----3-3----3-3-----3---|
D|--7----7-7----9-9-----7--|--5----5-5----7-7-----5--|--3----3-3----5-5-----3---|
A|-------------------------|-------------------------|--------------------------|
E|-------------------------|-------------------------|--------------------------|

e|--8-----7-------------7--------------------------|
B|------------8---10--------8----------8---7---8---|
G|------------------------------7------------------|
D|-------------------------------------------------|
A|-------------------------------------------------|
E|-------------------------------------------------|

e|--------7-8-------7------------|
B|--8-10----------------10---8---|
G|-------------------------------|
D|-------------------------------|
A|-------------------------------|
E|-------------------------------|

Repeat at beginning of "lead" section.


Login or Register to remove this ad.