Ads

Ephemeral Memory (Chrono Cross) Guitar Tab

Submitted: Jun 04, 2013 by Colin_spade (Last updated: Jun 06, 2013)

5
Average: 5 (2 votes)
Download | Listen
Game: Chrono Cross
Composer(s): Yasunori Mitsuda
Style: Arrangement, Fingerstyle, Natural harmonics
Series: Chrono

This song is also called うたかたの想い

AutoScroll: Slow | Medium | Fast
 Singing Emotion (ver 1)                             


                                                                Yasunori Mitsuda
Track 1



        NH                                                          
        Q         Q    H           Q    Q    Q       Q    H         
E||----------||--------5--------|-------0---------|-------2--------|
B||----------||--------7--------|--2----0----0----|-------5--------|
G||----------||*--7----9--------|-------2---------|--2-------------|
D||----------||*--0-------------|-----------------|--0-------------|
A||--<>12----||-----------------|-----------------|----------------|
E||----------||-----------------|--3--------------|----------------|


  Q    Q    Q       Q    Q    Q       Q    Q    Q       Q    Q    Q     
-------0---------|-----------------|-----------------|-----------------|
-------0----0----|-------3---------|-----------------|-----------------|
--0----2---------|--2----2---------|-------4---------|------------0----|
-----------------|--0---------4----|--0----4---------|-------4---------|
-----------------|------------4----|--2---------0----|--2----5---------|
--3--------------|-----------------|-----------------|--3--------------|


  Q    Q    Q       Q    H           Q    Q    Q       Q    H         
-----------------|-------5--------|-------0---------|-------2--------|
-------2---------|--3----7--------|--2----0----0----|-------5--------|
-------2----2----|-------9--------|-------2---------|--2-------------|
--2----2---------|--0-------------|-----------------|--0-------------|
--0--------------|----------------|-----------------|----------------|
-----------------|----------------|--3--------------|----------------|


  Q    Q    Q       Q    Q    Q       Q    Q    Q       Q    Q    Q     
-------0---------|-------2---------|-----------------|-----------------|
-------0----0----|-------3----2----|--3----0----0----|-------0----3----|
--0----2---------|--2--------------|------------1----|--2---------2----|
-----------------|--0--------------|-------4----2----|-------2---------|
-----------------|------------4----|--2--------------|--0--------------|
--3--------------|-----------------|-----------------|-----------------|


                        ^                                         ^     
  H        Q       Q    Q    Q       Q    Q    E  E     Q    Q    Q     
----------------|-----------------|------------------|-----------------|
--2-------------|--0----3---------|------------------|-----------------|
--2--------2----|-------4----2----|------------2-----|-------2----2----|
----------------|-------5---------|--2----2----0--2--|--4----5----2----|
----------------|-----------------|--0---------------|--5---------4----|
----------------|--3--------------|------------------|-----------------|


            ^       ^                                                    
  Q    Q    Q       Q    Q    E  E     Q    Q    Q       Q    Q    Q     
-----------------|------------------|-----------------|-----------------|
-------0---------|--0----0----3-----|--2---------0----|------------3----|
------------2----|------------------|-----------------|--2--------------|
--0----4---------|--0----0----2--4--|--2----2---------|--0----4---------|
--2---------4----|------------------|--0---------4----|--2--------------|
------------5----|--3---------------|-----------------|-----------------|


                        ^                                               
  H        Q       Q    Q    Q       Q    Q    E  E     Q    Q    Q     
----------------|-----------------|------------------|-----------------|
--0-------------|--0----3---------|------------------|-----------------|
-----------2----|-------4----2----|------------2-----|-------2----2----|
--4-------------|-------5---------|--2----2----0--2--|--4----5----2----|
--5--------0----|-----------------|--0---------------|--5---------4----|
----------------|--3--------------|------------------|-----------------|


  Q    Q    Q       Q    Q    Q       Q    Q    Q       H        Q     
-----------------|-----------------|-----------------|----------------|
-------0---------|-----------------|-----------------|----------------|
-----------------|------------0----|------------1----|----------------|
--0----4---------|--0----0---------|-------4----0----|--2--------2----|
--2---------4----|--2--------------|-----------------|--0-------------|
------------5----|--3--------------|--0--------------|----------------|


                     ^              
  H        Q         H.             
-----------------||---------------||
-----------------||---------------||
-----------2----*||--2------------||
--L-------------*||--2------------||
-----------------||--4------------||
-----------------||--5------------||




Duration Legend
---------------
W - whole
H - half
Q - quarter
E - 8th
S - 16th
T - 32nd
X - 64th
. - note dotted
|-n-|  - n-tuplets


Tablature Legend
----------------
L - tied note
x - dead note
g - grace note
(n) - ghost note
> - accentuded note
NH - natural harmonic
AH - artificial harmonic
TH - tapped harmonic
SH - semi harmonic
PH - pitch harmonic
h - hammer on
p - pull off
b - bend
br - bendRelease
pb - preBend
pbr - preBendRelease
brb - bendReleaseBend
\n/ - tremolo bar dip
\n - tremolo bar dive
-/n - tremolo bar Release up
/n\ - tremolo bar inverted dip
/n - tremolo bar return
-\n - tremolo bar Release down
S - shift slide
s - legato slide
/ -  slide into from below or out of upwards
\ -  slide into from above or out of downwards
~ - vibrato
W - wide vibrato
tr - trill
TP - tremolo picking
T - tapping
S - slap
P - pop
< - fade in
^ - brush up
v - brush down
Login or Register to remove this ad.