Ads

Earth Dragon Isle (Chrono Cross) Guitar Tab

Submitted: Jun 17, 2015 by scarecrowlol

5
Average: 5 (3 votes)
Download | Listen
Game: Chrono Cross
Composer(s): Yasunori Mitsuda
Style: Arrangement, Fingerstyle
Series: Chrono

AutoScroll: Slow | Medium | Fast
Title: Earth Dragons Island
SubTitle: Chrono Cross
Artist: Yasanori Mitsuda
Tabber: Mitch Jackson
Tempo = 45
T/S = 3/4


      S S S S S S S S S S S S      S S S S S S S S S S S S      S S S S S S S S S S S S      S S S S S S S S S S S S
D ||----------------------------|----------------------------|----------------------------|----------------------------|
A ||--6-----------6-------------|--6-----------6-------------|--4-----------4-------------|--4-----------4-------------|
E ||o-----6-----6-----6-----6---|------6-----6-----6-----6---|------4-----4-----4-----4---|------4-----4-----4-----4---|
D ||o---6-----6-----6-----6-----|----6-----6-----6-----6-----|----4-----4-----4-----4-----|----4-----4-----4-----4-----|
A ||--------6-----------6-------|--------6-----------6-------|--------4-----------4-------|--------4-----------4-------|
D ||--6-------------------------|--6-------------------------|--4-------------------------|--4-------------------------|


     S S S S S S S S S S S S      S S S S S S S S S S S S      S S S S S S S S S S S S      S S S S S S S S S S S S
  |----------------------------|----------------------------|----------------------------|----------------------------|
  |--2-----------2-------------|--2-----------2-------------|--0-----------0-------------|--0-----------0-------------|
  |------2-----2-----2-----2---|------2-----2-----2-----2---|------0-----0-----0-----0---|------0-----0-----0-----0---|
  |----2-----2-----2-----2-----|----2-----2-----2-----2-----|----0-----0-----0-----0-----|----0-----0-----0-----0-----|
  |--------2-----------2-------|--------2-----------2-------|--------0-----------0-------|--------0-----------0-------|
  |--2-------------------------|--2-------------------------|--0-------------------------|--0-------------------------|


     S S S S S S S S S S S S      S S S S S S S S S S S S      S S S S S S S S S S S S      S S S S S S S S S S S S
  |----------------------------|----------------------------|----------------------------|--6-----------4-------------|
  |--6-------------------------|--9-----------8-------------|--7-----------6-------------|--4-----------4-------4-----|
  |------6-----6-9---6-----6---|------6-----6-----6-----6---|------4-----4-----4-----4---|------4-----4-----4-----4---|
  |----6-----6-----6-----6-----|----6-----6-----6-----6-----|----4-----4-----4-----4-----|----4-----4-----4-----4-----|
  |--------6-----------6-------|--------6-----------6-------|--------4-----------4-------|--------4-----------4-------|
  |--6-------------------------|--6-------------------------|--4-------------------------|--4-------------------------|


     S S S S S S S S S S S S      S S S S S S S S S S S S      S S S S S S S S S S S S      S S S S S S S S S S S S
  |----------------------------|--4-------------------------|--2-----------0-------------|--7-----------9---9---11----|
  |--6-----------4-------------|--2-----------6-------------|--0-----------0-------------|--0-----------0-------------|
  |------2-----2-----2-----2---|------2-----2-----2-----2---|------0-----0-----0-----0---|------0-----0-----0-----0---|
  |----2-----2-----2-----2-----|----2-----2-----2-----2-----|----0-----0-----0-----0-----|----0-----0-----0-----0-----|
  |--------2-----------2-------|--------2-----------2-------|--------0-----------0-------|--------0-----------0-------|
  |--2-------------------------|--2-------------------------|--0-------------------------|--0-------------------------|


     S  S  S  S  S  T  T  S  S  S  S  S  S       S  S  S  S  S  S  S  S  S  S  S  S
  |--12-------------11h12-14----------16------|--11----------------9-------------------|
  |--9--------------------9-------------------|--9-----------------9-----------12------|
  |--10----9--------9-----------9--------9----|--------9--------9--------9--------9----|
  |-----9--------9-----------9--------9-------|-----9--------9--------9--------9-------|
  |-----------9--------------------9----------|-----------9-----------------9----------|
  |--9----------------------------------------|--9-------------------------------------|


     S  S  S  S  S  T T S  S  S  S  S  S       S  S  S  S  S  S  S  S  S  S  S  S
  |--3--------------2h3-5-----------7-------|--2-----------------0-------------------|
  |--0------------------0-------------------|--0-----------------0-----------3-------|
  |--------0--------0---------0--------0----|--------0--------0--------0--------0----|
  |-----0--------0---------0--------0-------|-----0--------0--------0--------0-------|
  |-----------0------------------0----------|-----------0-----------------0----------|
  |--0--------------------------------------|--0-------------------------------------|


     S  S  S  S  S  S  S  S  S  S  S  T T      S  S  S  S  S  S  S  S  S  S  S  S
  |--------------------0--------------------|---------------------------------------||
  |--2-----0--------0--2-----0--------2h3---|--2-----0--------0--2-----0--------0---||
  |-----0--------0--------0--------0--------|-----0--------0--------0--------0-----o||
  |-----------0-----------------0-----------|-----------0-----------------0--------o||
  |-----------------------------------------|---------------------------------------||
  |--2--------------------------------------|--2------------------------------------||


     S S S S S S S S S S S S      S S S S S S S S S S S S      S S S S S S S S S S S S      S S S S S S S S S S S S
  |----------------------------|----------------------------|----------------------------|----------------------------|
  |--6-----------6-------------|--6-----------6-------------|--4-----------4-------------|--4-----------4-------------|
  |------6-----6-----6-----6---|------6-----6-----6-----6---|------4-----4-----4-----4---|------4-----4-----4-----4---|
  |----6-----6-----6-----6-----|----6-----6-----6-----6-----|----4-----4-----4-----4-----|----4-----4-----4-----4-----|
  |--------6-----------6-------|--------6-----------6-------|--------4-----------4-------|--------4-----------4-------|
  |--6-------------------------|--6-------------------------|--4-------------------------|--4-------------------------|


     S S S S S S S S S S S S      S S S S S S S S S S S S      S S S S S S S S S S S S      S S S S S S S S S S S S
  |----------------------------|----------------------------|----------------------------|----------------------------|
  |--2-----------2-------------|--2-----------2-------------|--0-----------0-------------|--0-----------0-------------|
  |------2-----2-----2-----2---|------2-----2-----2-----2---|------0-----0-----0-----0---|------0-----0-----0-----0---|
  |----2-----2-----2-----2-----|----2-----2-----2-----2-----|----0-----0-----0-----0-----|----0-----0-----0-----0-----|
  |--------2-----------2-------|--------2-----------2-------|--------0-----------0-------|--------0-----------0-------|
  |--2-------------------------|--2-------------------------|--0-------------------------|--0-------------------------|


     H.
  |----------------------------||
  |--L-------------------------||
  |--L-------------------------||
  |--L-------------------------||
  |--L-------------------------||
  |--L-------------------------||

Login or Register to remove this ad.