Ads

Drowning Valley (Chrono Cross) Guitar Tab

Submitted: Jan 19, 2011 by sir0nion (Last updated: Jan 08, 2013)

5
Average: 5 (1 vote)
Download | Listen
Game: Chrono Cross
Composer(s): Yasunori Mitsuda
Style: Arrangement, Fingerstyle
Series: Chrono

AutoScroll: Slow | Medium | Fast
The tuning used on this one is pretty interesting its like Open C, but with D as the 6th string instead of C.

Song Title: 	Drowning Valley
Game: 		Chrono Cross
Composer: 	Yasunori Mitsuda
Tabbed By: 	James Carson
Date: 		01/07/2013

     S S S S S S S S S S    S S S S S S S S S S    S S S S S S S S S S  
E||--5-x---5-x---3-x-3-x-|--5-x---5-x---3-x-3-x-|--5-x---5-x---3-x-3-x-|
C||--4-x-2-4-x-2-2-x-2-x-|--4-x-2-4-x-2-2-x-2-x-|--4-x-2-4-x-2-2-x-2-x-|
G||--x-x-x-x-x-x-x-x-x-x-|--x-x-x-x-x-x-x-x-x-x-|--x-x-x-x-x-x-x-x-x-x-|
C||--4-x-2-4-x-2-2---2---|--4-x-2-4-x-2-2---2---|--4-x-2-4-x-2-2---2---|
G||----------------------|----------------------|----------------------|
D||----------------------|----------------------|----------------------|


  S S S S S S S S S S    S S S S S S S S S S    S S S S S S S S S S  
--5-x---5-x---3---3---|--5-x---5-x---3-x-3-x-|--5-x---5-x---3-x-3-x-|
--4-x-2-4-x-2-2---2---|--4-x-2-4-x-2-2-x-2-x-|--4-x-2-4-x-2-2-x-2-x-|
--x-x-x-x-x-x-x---x---|--x-x-x-x-x-x-x-x-x-x-|--x-x-x-x-x-x-x-x-x-x-|
--4-x-2-4-x-2-2---2---|--4-x-2-4-x-2-2---2---|--4-x-2-4-x-2-2---2---|
----------------------|----------------------|----------------------|
----------------------|----------------------|----------------------|


  S S S S S S S S S S    S S S S S S E  E       E  S S S S E  E   
--5-x---5-x---3-x-3-x-|--5-x---5-x------0--||---1------3---0-----|
--4-x-2-4-x-2-2-x-2-x-|--4-x-2-4-x-2-2-----||-----------------2--|
--x-x-x-x-x-x-x-x-x-x-|--x-x-x-x-x-x-------||*-------------------|
--4-x-2-4-x-2-2---2---|--4-x-2-4-x-2-------||*-------0---2-------|
----------------------|--------------------||------2-------0--2--|
----------------------|--------------------||---0----------------|


         |--3--|                                                
  E  S S S  S  S E  E     E  S S S S E  E     E  S S S S E  E   
-----------------------|-------------------|----------------0--|
--0------0h-2p-0----0--|--2------0---0-----|-------------2-----|
-----------------4-----|----------------4--|--2------2---------|
-------0-2-------------|-------0---2-------|-------0---2-------|
-----2-----------0--2--|-----2-------0--2--|-----2-------0--2--|
--0--------------------|--0----------------|--0----------------|


                             |--3--|                            
  E  S S S S E  E     E  S S S  S  S E  E     E  S S S S E  E   
--1------3---0-----|-----------------------|-------------0-----|
----------------2--|--0------0h-2p-0----0--|--2------2------0--|
-------------------|-----------------4-----|-------------------|
-------0---2-------|-------0-2-------------|-------0---2-------|
-----2-------0--2--|-----2-----------0--2--|-----2-------0--2--|
--0----------------|--0--------------------|--0----------------|


                                                |--3--|        
  E  S E  S E  E     E  S S S S E  E     E  S S S  S  S E  E   
---------------0--|--1------3---0-----|-----------------------|
--2---------2-----|----------------2--|--0------0h-2p-0----0--|
------------------|-------------------|-----------------4-----|
-------0--2-------|-------0---2-------|-------0-2-------------|
-----2------0--2--|-----2-------0--2--|-----2-----------0--2--|
--0---------------|--0----------------|--0--------------------|


  E  S S S S E  E     E  S S S S E  E     E  S S S S E  E   
-------------------|----------------0--|--1------3---0-----|
--2------0---0-----|-------------2-----|----------------2--|
----------------4--|--2------2---------|-------------------|
-------0---2-------|-------0---2-------|-------0---2-------|
-----2-------0--2--|-----2-------0--2--|-----2-------0--2--|
--0----------------|--0----------------|--0----------------|


         |--3--|                                               
  E  S S S  S  S E  E     E  S S S S E  E     E  S E  S E  E   
-----------------------|-------------0-----|------------------|
--0------0h-2p-0----0--|--2------2------0--|--2------------L--|
-----------------4-----|-------------------|------------------|
-------0-2-------------|-------0---2-------|-------0--2-------|
-----2-----------0--2--|-----2-------0--2--|-----2------0--2--|
--0--------------------|--0----------------|--0---------------|


   E   S  S  E   E   E   E      E  S S E  E   E   E     E  S S E  E  E  E   
--14----------------13--11--|--10-------------8------|---------------------|
----------------------------|--------------------10--|--8------------6--4--|
----------------------------|---0---------0-------0--|---------------------|
--------------------13--10--|------7-0-------10------|-----8------8--6--4--|
------15--------11----------|----------7-------------|--6----6-9-----------|
--13-----13-15--------------|------------------------|---------------------|


  E  S S E  E  E  E     E  S S E  E  E  E     E  S S E   E   E  E   
---------------------|---------------------|--4---------11---------|
--3------------2--3--|--6------------5--6--|-----------------------|
--0--0------0--0--3--|-----4---------4-----|-----4--------------9--|
-------0-3-----------|--6------3--6-----3--|--4----4-6---8--11-----|
---------------------|-------6-------------|-----------------------|
---------------------|---------------------|-----------------------|


   E  S S E   E  E   E      E  S S  E  E  E  E      E  S  S  S  S E   S S  
------------------------|--------------9--------|--10-------10-12----10---|
--10-------------9--10--|--12----------------7--|-----------------9-------|
-----------------7--10--|--------------6--9-----|--10----10----------10---|
---7----7-9--10---------|---9----9-12-----------|-------------------------|
------7-----------------|------9----------------|-------------------------|
------------------------|-----------------------|---0--0----------------0-|


   E  E   S  E  S  E     E  S S  S  S E  S S     E  E   S  E  S  E   
--12-----10-12--------|--8------10-12----8---|--12-----10-12--------|
------9---------9-12--|---------------9------|------9---------9-12--|
--10------7--9--------|--9----9----------9---|---9------7--9--------|
------9---------9-12--|----------------------|------9---------9-12--|
----------------------|----------------------|----------------------|
---0------------------|--0--0--------------0-|---0------------------|


  E  S S  S  S E  S S     E  E   S  E  S  E      S   S  E   S  S  S   S  S  S  
---------10-12--------|--12-----10-12--------|-------------------10h-13-10----|
--9------------9--9---|------9---------9-12--|---------11-----11-----------11-|
--7----7----------7---|---7--7---7--9--------|--10h-12-----12-----------------|
----------------------|----------------9-12--|--------------------------------|
----------------------|----------------------|--------------------------------|
--0--0--------------0-|---0------------------|---0----------------------------|


   S   S  S  S  E   E  E        S   S  S  S  Q.       
------------12-15\-----0---||------------12-15------||
---------13---------2------||---------13------------||
--12h-14------------------*||--12h-14---------------||
--------------------------*||-----------------------||
---------------------------||-----------------------||
---0-----------------------||---0-------------------||




Duration Legend
---------------
W - whole
H - half
Q - quarter
E - 8th
S - 16th
T - 32nd
X - 64th
. - note dotted
|-n-|  - n-tuplets


Tablature Legend
----------------
L - tied note
x - dead note
g - grace note
(n) - ghost note
> - accentuded note
NH - natural harmonic
AH - artificial harmonic
TH - tapped harmonic
SH - semi harmonic
PH - pitch harmonic
h - hammer on
p - pull off
b - bend
br - bendRelease
pb - preBend
pbr - preBendRelease
brb - bendReleaseBend
\n/ - tremolo bar dip
\n - tremolo bar dive
-/n - tremolo bar Release up
/n\ - tremolo bar inverted dip
/n - tremolo bar return
-\n - tremolo bar Release down
S - shift slide
s - legato slide
/ -  slide into from below or out of upwards
\ -  slide into from above or out of downwards
~ - vibrato
W - wide vibrato
tr - trill
TP - tremolo picking
T - tapping
S - slap
P - pop
< - fade in
^ - brush up
v - brush down
Login or Register to remove this ad.

3 comments on Drowning Valley

can't this be played be

5

can't this be played be pretty easy in dropped-D ? but it's good, I would appreciate the full version though ;)

i got you that full version 2

i got you that full version 2 years later

It probably can be play in

It probably can be play in drop d. As the date on the text tab suggests I made this tab over a year ago. I don't really remember what was going through my head when I tried out this tuning. :D