Dragon Knight (Chrono Cross) Guitar Tab

Submitted: Apr 02, 2011 by Ranulf (Last updated: Apr 15, 2011)

0
Download | Listen
Game: Chrono Cross
Composer(s): Yasunori Mitsuda
Style: 2 or more instruments, Transcription
Series: Chrono

AutoScroll: Slow | Medium | Fast
Dragon Knight
Chrono Cross
Playstation
Tabbed by John Adams
Composed by Yasunori Mitsuda
3/29/2011



 Guitar 1 - Lead

e||-------15--13-15--------------15---17-18-17-15----15--------------------------------------|
B||--13---------------13-----13-------------------18--------------15-16-15-18-15-16p15-------|
G||-----------------------15-----------------------------17----17----------------------17----|
D||---------------------------------------------------------------------------------------17-|
A||------------------------------------------------------------------------------------------|
E||------------------------------------------------------------------------------------------|

|----------15--------------------------------15--13-15--------------15---17-18-17-15----15-----|
|--------------18---15---------------15-13---------------13-----13-------------------18--------|
|------17----------------15----15-17-------------------------15-----------------------------17-|
|--17------------------------------------------------------------------------------------------|
|----------------------------------------------------------------------------------------------|
|----------------------------------------------------------------------------------------------|

|-------------------------------------------15------------------------------|
|-----15-16-15-18-15-16p15----------------------18---15---------------15----|
|--17----------------------17-----------17----------------15----15-17----17-|
|-----------------------------17----17--------------------------------------|
|---------------------------------------------------------------------------|
|---------------------------------------------------------------------------|

|--15-16-18-16-15------15-16-18-16-15------15-16-18-16-15------16-21-16--15-20-15-|
|-----------------18------------------18------------------18----------------------|
|---------------------------------------------------------------------------------|
|---------------------------------------------------------------------------------|
|---------------------------------------------------------------------------------|
|---------------------------------------------------------------------------------|

|--15-16-18-16-15------15-16-18-16-15------15-16-18-16-15------16-21-16--15-20-15-|
|-----------------18------------------18------------------18----------------------|
|---------------------------------------------------------------------------------|
|---------------------------------------------------------------------------------|
|---------------------------------------------------------------------------------|
|---------------------------------------------------------------------------------|

|--13------13-------------------------------------------------13------13--16-14-13-----13-|
|-------16-----16-14-------------16-14--------------------16-------16---------------16----|
|--------------------17---15-17--------17--15------17-15----------------------------------|
|---------------------------------------------15------------------------------------------|
|-----------------------------------------------------------------------------------------|
|-----------------------------------------------------------------------------------------|

|--16--18------13------13-----------------------------------------------13---16-14-13-------13-||
|----------16-------16-----16-14-------------16-14-------------------16----------------16------||
|--------------------------------17---15-17--------17--15------17-15---------------------------||
|---------------------------------------------------------15-----------------------------------||
|----------------------------------------------------------------------------------------------||
|----------------------------------------------------------------------------------------------||



 Guitar 2 - Rhythm

e|--------------------------------------------------------------------------------------------------|
B|--------------------------------------------------------------------------------------------------|
G|--5-5-5--5-5-5---5-5-5--5-5-5--5-5-5---5-5-5--8-8-8--8-8-8---8-8-8--10-10-10--10-10-10---10-10-10-|
D|--5-5-5--5-5-5---5-5-5--5-5-5--5-5-5---5-5-5--8-8-8--8-8-8---8-8-8--10-10-10--10-10-10---10-10-10-|
A|--------------------------------------------------------------------------------------------------|
E|--------------------------------------------------------------------------------------------------|

||--------------------------------------------------------------------------------------------------|
||--------------------------------------------------------------------------------------------------|
||--5-5-5--5-5-5---5-5-5--5-5-5--5-5-5---5-5-5--8-8-8--8-8-8---8-8-8--10-10-10--10-10-10---10-10-10-|
||--5-5-5--5-5-5---5-5-5--5-5-5--5-5-5---5-5-5--8-8-8--8-8-8---8-8-8--10-10-10--10-10-10---10-10-10-|
||--------------------------------------------------------------------------------------------------|
||--------------------------------------------------------------------------------------------------|

|-----------------------------------------------------------------------------------------|
|-----------------------------------------------------------------------------------------|
|--5-5-5--5-5-5---5-5-5--5-5-5--5-5-5---5-5-5--3-3-3--3-3-3---3-3-3--3-3-3--3-3-3---3-3-3-|
|--5-5-5--5-5-5---5-5-5--5-5-5--5-5-5---5-5-5--3-3-3--3-3-3---3-3-3--3-3-3--3-3-3---3-3-3-|
|-----------------------------------------------------------------------------------------|
|-----------------------------------------------------------------------------------------|

|--------------------------------------------------------------------------------------------------|
|--------------------------------------------------------------------------------------------------|
|--5-5-5--5-5-5---5-5-5--5-5-5--5-5-5---5-5-5--8-8-8--8-8-8---8-8-8--10-10-10--10-10-10---10-10-10-|
|--5-5-5--5-5-5---5-5-5--5-5-5--5-5-5---5-5-5--8-8-8--8-8-8---8-8-8--10-10-10--10-10-10---10-10-10-|
|--------------------------------------------------------------------------------------------------|
|--------------------------------------------------------------------------------------------------|

|-----------------------------------------------------------------------------------------|
|-----------------------------------------------------------------------------------------|
|--5-5-5--5-5-5---5-5-5--5-5-5--5-5-5---5-5-5--3-3-3--3-3-3---3-3-3--3-3-3--3-3-3---3-3-3-|
|--5-5-5--5-5-5---5-5-5--5-5-5--5-5-5---5-5-5--3-3-3--3-3-3---3-3-3--3-3-3--3-3-3---3-3-3-|
|-----------------------------------------------------------------------------------------|
|-----------------------------------------------------------------------------------------|

|---------------------------------------------------------------|
|--------------------------------------------------7-7-7--6-6-6-|
|--5-5-5--7--5-8---5-5-5--7--5-8---5-5-5--7--5-8---6-6-6--5-5-5-|
|--5-5-5--7--5-8---5-5-5--7--5-8---5-5-5--7--5-8----------------|
|---------------------------------------------------------------|
|---------------------------------------------------------------|

|---------------------------------------------------------------|
|--------------------------------------------------7-7-7--6-6-6-|
|--5-5-5--7--5-8---5-5-5--7--5-8---5-5-5--7--5-8---6-6-6--5-5-5-|
|--5-5-5--7--5-8---5-5-5--7--5-8---5-5-5--7--5-8----------------|
|---------------------------------------------------------------|
|---------------------------------------------------------------|

|---------------------------------------------------------------|
|--------------------------------------------------7-7-7--6-6-6-|
|--5-5-5--7--5-8---5-5-5--7--5-8---5-5-5--7--5-8---6-6-6--5-5-5-|
|--5-5-5--7--5-8---5-5-5--7--5-8---5-5-5--7--5-8----------------|
|---------------------------------------------------------------|
|---------------------------------------------------------------|

|---------------------------------------------------------------|
|--------------------------------------------------7-7-7--6-6-6-|
|--5-5-5--7--5-8---5-5-5--7--5-8---5-5-5--7--5-8---6-6-6--5-5-5-|
|--5-5-5--7--5-8---5-5-5--7--5-8---5-5-5--7--5-8----------------|
|---------------------------------------------------------------|
|---------------------------------------------------------------|
Login or Register to remove this ad.