Ads

Dimension Breach (Chrono Cross) Guitar Tab

Submitted: May 21, 2012 by thedstring

5
Average: 5 (5 votes)
Download | Listen
Game: Chrono Cross
Composer(s): Yasunori Mitsuda
Style: Fingerstyle, Transcription
Series: Chrono

Click here for a video example.

AutoScroll: Slow | Medium | Fast
Bend of Time
Chrono Cross
By: Yasunori Mitsuda

I made this tab when I was 16, 10 years ago, as an assignment.  You
may have seen this on other guitar tab sites, its been pushed all over, and
not by me.  I assure you, this is my own tab.  You can look at my myspace
page linked at the bottom, it's me.  I think I'll make a video of me playing
this version.

This is the song that you hear when you go to the island right under
the main island called the "Bend of Time".  The song is also named
after the place

|-5------0-2-3-----0-|------------------|-5------0-2-3--2--5--|
|------3--------2----|------------------|------3-----3--------|
|----2----------2----|-7--0-------0--7--|----2-------4--------|
|-0----------0-------|----7-------7-----|-0----------5--0-----|
|--------------------|-5-------5--------|---------------------|
|--------------------|------------------|---------------------|

|-0------------------|-5------0-2-3-----0-|-2------------------|
|-3--------2-------3-|------3--------2----|-3------------------|
|-0-----4--2---------|----2----------3----|-4--------4---------|
|----2---------------|-0----------0-----4-|----4---------------|
|-0------------------|------------------1-|-2-----0------------|
|--------------------|--------------------|----------4---------|

|-------2--0----|----------------2-3-|-5--10--9--7-----5-|--5--------0--2--3-|
|-3-----------3-|-3------------------|-3-----------------|-----------2-------|
|-0-------------|-2------------------|-2-----------------|-----------0-------|
|-2-------------|-5---------4--------|-0------------0----|--------2----------|
|----2-----0----|-5------0--5--------|----9--------------|--0--------0-------|
|-0-------------|--------------------|-----------3-------|-------------------|

                            
|-2--7---------0-2-|-0-------------2-3-|-5--10--9--7-----5-|-5---------------|
|-3-----7-3--------|-3--------2--------|-3-----------------|-5-----------7-8-|
|-2-------0--------|-2--------2--------|-2-----------------|-6-------7-9-7---|
|---------0--------|-------2-----------|-0------------0----|-----------------|
|-2----------2-----|-0-----------------|----9--------------|-0---7-----------|
|---------0--------|-------------------|-----------3-------|---------6---7---|


|-------------------|----2--3--0--------|
|-7-------3---------|----------3-----2--|
|-------------------|-0--------2-----2--|
|-----------------0-|-------------2-----|
|-9-----------------|----------0--------|
|-----5---3---------|-0-----------------|


Repeat from the begining as many times as you like.
Nathan Brooks


 i'm on myspace at myspace.com/nateonguitar 
 No myspace membership needed to visit my website
Login or Register to remove this ad.

5 comments on Dimension Breach

I wrote this tab about 10

5

I wrote this tab about 10 years ago and it's been passed around to all the guitar tab web sites.

I'd like to update it to a more accurate version, how do I do that without resubmitting it? Do I have the option to update my own tabs?

I don't even use my myspace page, it's been years.

Just make a thread in the

Just make a thread in the submissions forum and indicate that it is an update with the new files.

Cool thanks! I just read my

5

Cool thanks!

I just read my comments I wrote at the top, I was 16, so that was 12 years ago! I uploaded this song 2 years ago without editing it. I really should have looked through it.

Very good, I'll be coming

5

Very good, I'll be coming back to this one and comparing it with the others here along with listening to the OST. :-)

I now play this part:

5

I now play this part:

                      [ this measure   ]
|-5------0-2-3-----0-|------------------|-5------0-2-3--2--5--|
|------3--------2----|------------------|------3-----3--------|
|----2----------2----|-7--0-------0--7--|----2-------4--------|
|-0----------0-------|----7-------7-----|-0----------5--0-----|
|--------------------|-5-------5--------|---------------------|
|--------------------|------------------|---------------------|

like this:

                      [ this measure   ]
|-5------0-2-3-----0-|------------------|-5------0-2-3--2--5--|
|------3--------2----|-3-------------3--|------3-----3--------|
|----2----------2----|----2-------2-----|----2-------4--------|
|-0----------0-------|-0--5-------5-----|-0----------5--0-----|
|--------------------|---------5--------|---------------------|
|--------------------|------------------|---------------------|