Ads

Arni Village (Home World) (Chrono Cross) Guitar Tab

Submitted: Mar 30, 2012 by Omnicide

5
Average: 5 (5 votes)
Download | Listen
Game: Chrono Cross
Composer(s): Yasunori Mitsuda
Style: Arrangement, Fingerstyle
Series: Chrono

AutoScroll: Slow | Medium | Fast
Arni Village (Home World)
Chrono Cross
Composed by Yasunori Mitsuda
Arranged by William Geesdorf


Standard Tuning
(Capo 2)


                                 |--3--|                             
     H        E  E       Q    E  S  S  S E  E     E  E  E  E  E  E   
E||-----------------||-------------------------|--------------------|
B||-----------------||---6-------6h-7p-6-------|--4-----------2-----|
G||-----------1-----||*--6---------------8--6--|--3-----------3-----|
D||-----------1-----||*-------6----------------|-----6--4-----------|
A||-----------------||-------------------------|-----------4--------|
E||--------------2--||---9------------------9--|--2--------------2--|


          |--3--|                                       |--3--|        
  Q    E  S  S  S E  E     E  E  E  E  E  E     Q    E  S  S  S E  E   
------------------------|--------4-----------|------------------------|
--6-------6h-7p-6-------|--4-----4--------7--|--6-------6h-7p-6-------|
--6---------------8--6--|--3--------------8--|--6---------------8--6--|
-------6----------------|-----6--4-----6-----|-------6----------------|
------------------------|-----------4-----9--|------------------------|
--9------------------9--|--2-----------------|--9------------------9--|


                       ^                  ^                                   
  E  E  E  E  E  E     Q    E  E  Q       H        E  E     Q    Q     E  E   
--------------------|------------------|-----------------|-------------------|
--4-----------2-----|--4---------------|-----------------|--6----------9-----|
--3-----------3-----|--5---------------|--6--------------|--6---------10-----|
-----6--4--------4--|--6----6--4--4----|--6--------------|-------6-----------|
-----------4--------|--6----------6----|--8--------------|-------------------|
--2-----------------|--4---------------|--9-----------4--|--9-------------9--|


  Q    Q    Q       Q    Q     E  E     Q     Q    Q       Q     Q    Q     
-----------------|-------------------|--2-----9----8----|--9---------------|
--7---------4----|--6----------9-----|--4----11----9----|--9-----9----7----|
--8---------4----|--6---------10-----|------------------|-------10----8----|
-----------------|-------6-----------|-------------6----|------------------|
-------9----6----|-------------------|------------------|------------------|
--7--------------|--6-------------6--|--2-----9---------|--9----------8----|


                                                          ^                 
  Q    Q    E  E     Q    Q    E  E     Q    Q    Q       Q    E  E  E  E   
------------------|--1---------2-----|-----------------|-------------------|
--6------------4--|--2---------4-----|--4--------------|--2-------------2--|
--6---------6-----|------------------|--5---------6----|--4----------4-----|
------------------|------------------|------------6----|--4-------4--------|
-------8----------|-------4----------|-------6---------|--2----2-----------|
--6---------4-----|--2------------2--|--4---------4----|-------------------|


  ^                                                                              
  Q    Q    Q       E  E  E  E  E  E     E  E  E  E  E  E     E  E  E  E  E  E   
-----------------|--0--2--------------|--------------------|--------4-----------|
------------4----|--0-----2--------0--|--2--0-----------0--|--2-----2--------4--|
--6---------4----|--2-----------------|--4--------1-----1--|--2-----------2-----|
--6---------6----|-----------1--2-----|--------2--1--------|-----2-----2--------|
--8--------------|--0--------0--------|--0--------0--4--2--|--0--------0--------|
--9----9----7----|--------------------|--------------------|--------------------|


              ^                                                                     
  E  E  E  E  E  E     E  E  E  E  E  E     E  E  E  E  E  E     E  E  E  E  E  E   
--------2-----0-----|-----0--7-----------|-----------------5--|--------------------|
--5--4--2-----0-----|--4-----4--0--------|-----------------7--|--9--------7--------|
--------2-----2-----|--4-----------3-----|--1-----------------|--9-----9-----9-----|
-----------1--------|-----------------4--|-----4--2--1--2-----|-----9-----------9--|
--0--------0--------|--------------------|-----------------0--|--------------------|
-----------------2--|--0--------0--------|--0--------2--4-----|--0--------0--------|


  E  E  E  E  E  E     E  E  E  E  E  E     E  E  E  E  E  E     E  E  E  E  E  E   
--------2-----4-----|--------------0-----|--0-----------------|--------------------|
--4-----4-----5--0--|--4--------0-----4--|--2--------0--------|--------0-----------|
--4--------2--------|--2-----2-----------|--2-----2-----2-----|--1--------1--------|
-----6--------------|-----2--------------|-----2-----------2--|-----4--------4--2--|
-----------2--4--2--|--0--------0--------|--0--------0-----2--|--0--------0--------|
--0-----------------|--------------------|--------------------|--------------------|


                       ^                                                         
  E  E  E  E  E  E     Q    E  E  E  E     Q    E  E  E  E     Q    E  E  E  E   
--------------0-----|-------------------|-------------------|-------------------|
--------4-----2-----|--0----------------|-------------------|-------------------|
--------4--1--2-----|--1----------1-----|-------------------|-------------6-----|
--1--2--4--2--------|--2-------------2--|--6-------4--7--4--|--4-------4-----6--|
--0-----------0-----|--2-------2--------|--5----5-----------|--4----4-----------|
-----------------4--|--0----0-----------|-------------------|-------------------|


                    ^                  ^                  ^                
  Q    Q    Q       Q    E  E  Q       Q    E  E  Q       Q    E  E  Q     
-----------------|------------------|------------------|------------------|
-----------------|------------------|------------------|------------------|
-----------------|--2----------2----|--4---------------|--6----------6----|
--3----4----6----|--4----------4----|--6----------2----|--7----------7----|
--4---------4----|--4-------4-------|--6-------6--4----|--7-------7-------|
-----------------|--2----2----------|--4----4----------|--5----5----------|


                     ^                                     ^                              
  Q    E  E  Q       Q    Q    Q       Q    E  E  E  E     H        Q       H.            
-------0----------|-----------------|-------------------|----------------|---------------|
--4----2-----4----|--4--------------|--4----------------|----------------|---------------|
--4----------4----|--4---------6----|-------6--------4--|--6-------------|---------------|
------------------|--6----6---------|----------6--4-----|--6-------------|---------------|
--2-------2-------|--4--------------|-------------4-----|--8--------9----|--8------------|
------------------|-----------------|-------------------|--9--------9----|--9------------|


  ^                  ^                  ^                                 
  Q    Q    E  E     Q    Q    E  E     H        Q       Q    E  E  Q     
------------------|------------------|----------------|------------------|
------------2-----|--0---------------|----------------|------------------|
--3---------3-----|--1---------3-----|--1-------------|-------1----------|
--4---------------|--1----1----4-----|--3-------------|-------4--4--3----|
--4----4----------|--2------------2--|--4-------------|--4----4-----4----|
--2------------2--|------------------|-----------4----|------------------|


  ^                  ^                                      ^                
  Q    Q    E  E     Q    E  E  E  E     Q.     E  E  E     Q.     E  E  E   
------------------|-------------------|------------------|------------------|
------------2-----|--0----4-----2-----|--7------------4--|--6---------------|
--3---------3-----|--1----4-----3-----|--6---------6-----|--6---------------|
--4---------------|--1-------1--------|---------6--------|--6------------6--|
--4----4----------|--2-------------2--|--4---------------|--4---------4-----|
--2------------2--|-------------------|------------------|---------4--------|


                                            ^                  ^                
  E  E  E  E  E  E     E  E  E  E  E  E     Q.     E  E  E     Q    E  E  Q     
--------------------|--------------------|------------------|------------------|
--------------------|--------------------|------------------|------------------|
--3-----------6-----|--4-----------3-----|--1---------------|------------------|
--4-----3--4--8-----|--4-----1--3--4-----|--3---------------|--6----4-----3----|
-----6-----------6--|-----2-----------2--|--4------4-----4--|--4----4-----4----|
--------------------|--------------------|------------4-----|--4-------4-------|


  Q    Q    E  E     Q    E  E  E  E     Q    E  E  E  E     Q    Q    Q     
------------------|-------------------|-------------------|-----------------|
------------------|-------------------|-------------------|-----------------|
------------------|-------------------|-------------------|-----------------|
--4---------------|--4----------6-----|--4----------4-----|--6----8----4----|
--6---------4-----|--6----4-----8-----|--6----4-----------|--8----9----6----|
-------7-------7--|--7-------7--9--7--|--6-------6-----6--|--6----6----6----|


  Q    E  E  E  E     Q    E  E  E  E     Q    E  E  E  E     Q    E  E  E  E   
-------------------|-------------------|-------------------|-------------------|
-------------------|-------------------|-------------------|-------------------|
-------------------|-------------------|-------------------|-------------------|
--4----------4-----|--6----4-----2-----|--1----------------|--6----------------|
--4----4-----------|--7----6-----4--0--|--1----4-----6-----|--6----6-----4-----|
--5-------5-----5--|--5-------5--------|--4-------4-----4--|--4-------4-----4--|


           ^       ^                   ^                              
  H        Q       H        E  E       H.              H.             
----------------|------------------||---------------|---------------||
----------------|------------------||--4------------|--L------------||
----------------|--1--------1-----*||--6------------|--L------------||
-----------1----|--1--------1-----*||--6------------|--L------------||
--3--------3----|--3---------------||--4------------|--L------------||
--4--------4----|--4-----------2---||---------------|---------------||




Duration Legend
---------------
W - whole
H - half
Q - quarter
E - 8th
S - 16th
T - 32nd
X - 64th
. - note dotted
|-n-|  - n-tuplets


Tablature Legend
----------------
L - tied note
h - hammer on
p - pull off
^ - brush up
Login or Register to remove this ad.

4 comments on Arni Village (Home World)

another great omnicide tab

5

another great omnicide tab

Thank you!

Thank you!

Correction

Instead of this:     

   Q    Q    Q          
|-----------------|
|--4--------------|
|--5---------6----|
|------------6----|
|-------6---------|
|--4---------4----|

Play this:

   Q    Q    Q          
|-----------------|
|--4---------2----|
|--5---------3----|
|-----------------|
|-------6---------|
|--4---------4----|

this must have been very

5

this must have been very challenging to arrange, props man...a bit too much for my hands though yikes