Ads

Another Guldove (Chrono Cross) Guitar Tab

Submitted: Oct 04, 2009 by oded (Last updated: Feb 06, 2010)

5
Average: 5 (3 votes)
Download | Listen
Game: Chrono Cross
Composer(s): Yasunori Mitsuda
Style: Fingerstyle, Transcription
Series: Chrono

AutoScroll: Slow | Medium | Fast
Name of song: Another Guldove.
Name of game: Chrono Cross
Composer of song: Yasunori Mitsuda 
Name of tabber: Oded Belahousky ([email protected])
Date tab was made: 1/10/2009


This is it toke a while to get the tricky part but I think thats it.
Just listen to the song to get the rhythem for the last part.
This is my first tab I think this is as accurate as can be.

e------------------------------------------------
B-------------0------0----------------0------0---
G----------2------2-----0----------2------2-----0
D-------0-----------------------0----------------
A------------------------------------------------
E---3-----------------------3--------------------

e------------------------------------------------
B-------------0------0----------------0------0---
G----------2------2-----0----------2------2-----0
D-------1-----------------------1----------------
A------------------------------------------------
E---3-----------------------3--------------------

e------------------------------------------------
B-------------0------0----------------0------0---
G----------2------2-----0----------2------2-----0
D-------2-----------------------2----------------
A------------------------------------------------
E---3-----------------------3--------------------

e------------------------------------------------
B-------------0------0----------------0---1--3--0
G----------2------2-----0----------2-------------
D-------3-----------------------3----------------
A------------------------------------------------
E---3-----------------------3--------------------

e------------------------------------------------
B-------------3------5----------------3------5---
G----------5------5-----5----------5------5-----5
D-------5-----------------------5----------------
A---3-----------------------3--------------------
E------------------------------------------------

e--------------------3-----------------------3---
B-------------3-----------------------3----------
G----------5------5-----5----------5------5-----5
D-------5-----------------------5----------------
A---6-----------------------6--------------------
E------------------------------------------------

e-------------2---------2-------------2------3-----0
B----------5---------5-------------5----------------
G-------4--------4--------------4---------4-----4---
D---2------------------------0----------------------
A---------------------------------------------------
E---------------------------------------------------

e---------------0-----3--------3--2
B--------3------------------3-----3
G-----0------0-----0-----2---------
D--2------------------0------------
A----------------------------------
E----------------------------------

e------------------------------------------------
B-----------------------------------------------1
G----------0--2------0--2----------0--2------2---
D-------0---------0-------------1---------1------
A------------------------------------------------
E---3-----------------------3--------------------

e------------------------------------------------
B------------------------------------------------
G----------0--2------0--2----------0--2------0--2
D-------0---------0-------------0---------0------
A------------------------------------------------
E---3-----------------------3--------------------

e------------------------------------------------
B-----------------------------------------------1
G----------0--2------0--2----------0--2------2---
D-------0---------0-------------1---------1------
A------------------------------------------------
E---3-----------------------3--------------------

e------------------------------------------------
B--------------------0----------------1------0---
G----------0--2---------0----------2------------2
D-------2---------2-------------3---------3------
A------------------------------------------------
E---3-----------------------3--------------------

e-----------------------3-----------------------3
B----------1--3------1-------------1--3------1---
G-------0---------0-------------0---------0------
D------------------------------------------------
A---3-----------------------2--------------------
E------------------------------------------------

e--------------------2--3----------0--2---------0--2
B----------1--3---1-------------0------------0------
G-------0-------------------------------------------
D---1-----------------------2------------0----------
A---------------------------------------------------
E---------------------------------------------------

e-------------------------------------0---------0
B----------1--3------1--3----------3---------3---
G-------0---------0-------------2---------2------
D---------------------------0--------------------
A---3--------------------------------------------
E------------------------------------------------

e---3--------3----------5---------7------3
B---------3----------3---------3----------
G------4----------4---------4---------4---
D---2-------------------------------------
A-----------------------------------------
E-----------------------------------------

e---2--------2---2---2---3---3-------
B---------1--------------------0-3---
G------0-----------0-------0--------0
D------------------------------------
A---3--------------------2-----------
E------------------------------------

e---0--------0---0---0---1---1-------
B--------------------------------1---
G------0--3--------0-----------2-----
D--------------------------3--------3
A---1--------------------0-----------
E------------------------------------

e------------------------------------
B---3--------3---3---3---4---4-------
G---------1--------1-----------0-3---
D------3-------------------3--------3
A------------------------------------
E---4--------------------3-----------


e---8--------------------7----------------
B------------------------------0-----8----
G----------5------7------------------7----
D-------5------5-----5------5-----5------5
A---0-------------------------------------
E------------------------7----------------


e---5---7----------------------------------------
B-------------8----------8-----7---8------------8
G----------5------7-----------------------9------
D-----5---------5-----7-----7----7-----9-----9---
A-----------------5----------------7-------------
E---8--------------------------------------------

e------5--7--8----7--5---3
B---8---------------------
G-------------------------
D-------------------------
A-------------------------
E-------------------------
Login or Register to remove this ad.

1 comment on Another Guldove

Hidden treasure! This tab is

5

Hidden treasure!

This tab is way money, and seemingly unknown. Either there's a better one I haven't seen yet (which is entirely possible since I'm exploring alphabetically by username, not by game), or, it just got buried and nobody ever found it.

I think there are a couple flubs but it seems to be 98%+ spot on.