Ads

A Serpent of the Twilight (Child of Light) Guitar Tab

Submitted: Dec 21, 2014 by Basisti94

5
Average: 5 (4 votes)
Download | Listen
Game: Child of Light
Composer(s): Cœur de pirate
Style: Arrangement, Fingerstyle

This song is also called Boss Theme 2

AutoScroll: Slow | Medium | Fast
    	 	A Serpent of the Twilight
                                
Child of Light
Coeur de pirate
Guitar Arrangement by Basisti94 (Miro Laaksonen)
(Based on a piano arrangement by Tigero)
17.12.2014

------------------------------------
This actually turned out to be a surprisingly easy arrangement.
However, it is fairly fast and around 8 minutes long, so playing
especially those bass notes exactly the way I wrote them all the time
probably takes far too much stamina, so you'll probably want to
vary things up a little. For example, certain parts sound pretty good
when strumming the chords. 
-------------------------------------


Tempo ~ 160
                 
     E  E  E  E  E  E  E  E     E  E  E  E  E  E  E  E     E  E  E  E  E  E  E  E     E  E  E  E  E  E  E  E   
E||--------------------------|--------------------------|--------------------------|--------------------------|
B||--------------------------|--0-----------------------|--1-----------------------|--3-----------------------|
G||--2--2--2--2--2--2--2--2--|--2--2--2--2--2--2--2--2--|--2--2--2--2--2--2--2--2--|--2--2--2--2--2--2--2--2--|
D||--2--------2--2-----------|--2--------2--2-----------|--2--------2--2-----------|--2--------2--2-----------|
A||--0--0--0--0--0--0--0--0--|--0--0--0--0--0--0--0--0--|--0--0--0--0--0--0--0--0--|--0--0--0--0--0--0--0--0--|
E||--------------------------|--------------------------|--------------------------|--------------------------|



  E  E  E  E  E  E  E  E     E  E  E  E  E  E  E  E     E  E  E  E  E  E  E  E     E  E  E  E  E  E  E  E   
--0-----------------------|--1-----------------------|--3-----------------------|--0-----------------------|
--------------------------|--------------------------|--------------------------|--------------------------|
--2--2--2--2--2--2--2--2--|--2--2--2--2--2--2--2--2--|--2--2--2--2--2--2--2--2--|--2--2--2--2--2--2--2--2--|
--2--------2--2-----------|--2--------2--2-----------|--2--------2--2-----------|--2--------2--2-----------|
--0--0--0--0--0--0--0--0--|--0--0--0--0--0--0--0--0--|--0--0--0--0--0--0--0--0--|--0--0--0--0--0--0--0--0--|
--------------------------|--------------------------|--------------------------|--------------------------|




  E  E  E  E  E  E  E  E     E  E  E  E  E  E  E  E     E  E  E  E  E  E  E  E     E  E  E  E  E  E  E  E   
--------------------------|--------------------------|--------0-----0-----0-----|--------0-----0-----0-----|
-----0--1-----1-----1-----|-----0--1-----1-----1-----|--1--3-----1--------------|--1--3-----1--------------|
--2--------2--------------|--2--------2--------------|--0--------0--------0-----|--0--------0--------0-----|
--2--------2--------2-----|--2--------2--------2-----|--2--------2--------2-----|--2--------2--------2-----|
--0--0--0--0--0--0--0--0--|--0--0--0--0--0--0--0--0--|--3--3--3--3--3--3--3--3--|--3--3--3--3--3--3--3--3--|
--------------------------|--------------------------|--------------------------|--------------------------|




  E  E  E  E  E  E  E  E     E  E  E  E  E  E  E  E     E  E  E  E  E  E  E  E     E  E  E  E  E  E  E  E   
--1--0--------1-----1-----|--1--0--------------------|--0-----0-----------------|--------------------------|
--------3-----------------|--------3--1--0-----0-----|--------------------------|--------------------------|
--2--------2--------2-----|--2--------2--------2-----|--------------1-----1-----|--1--2--1-----1-----1-----|
--0--0--0--0--0--0--0--0--|--0--0--0--0--0--0--0--0--|--2-----------------2-----|--2-----------------------|
--------------------------|--------------------------|--2--------2--------2-----|--2--------2--------2-----|
--------------------------|--------------------------|--0--0--0--0--0--0--0--0--|--0--0--0--0--0--0--0--0--|




  E  E  E  E  E  E  E  E     E  E  E  E  E  E  E  E     E  E  E  E  E  E  E  E     E  E  E  E  E  E  E  E   
--------------------------|--------------------------|--------0-----0-----0-----|--------0-----0-----0-----|
-----0--1-----1-----1-----|-----0--1-----1-----1-----|--1--3--------------------|--1--3--------------------|
--2--------2--------------|--2--------2--------------|--0--------0--------0-----|--0--------0--------0-----|
--2--------2--------2-----|--2--------2--------2-----|--2--------2--------2-----|--2--------2--------2-----|
--0--0--0--0--0--0--0--0--|--0--0--0--0--0--0--0--0--|--3--3--3--3--3--3--3--3--|--3--3--3--3--3--3--3--3--|
--------------------------|--------------------------|--------------------------|--------------------------|




  E  E  E  E  E  E  E  E     E  E  E  E  E  E  E  E     E  E  E  E  E  E  E  E     E  E  E  E  E  E  E  E   
--1--0--------1-----1-----|--1--0--------------------|--------------------------|--------------------------|
--------3-----------------|--------3--1--0--1--0--1--|--0-----0-----------------|--------------------------|
--2--------2--------2-----|--2--------2--------2-----|--------------2-----2-----|--1--2--1--2--1--2--1--2--|
--0--0--0--0--0--0--0--0--|--0--0--0--0--0--0--0--0--|--2-----------------2-----|--2--------2--------2-----|
--------------------------|--------------------------|--2--------2--------2-----|--2--------2--------2-----|
--------------------------|--------------------------|--0--0--0--0--0--0--0--0--|--0--0--0--0--0--0--0--0--|




  E  E  E  E  E  E  E  E     E  E  E  E  E  E  E  E     E  E  E  E  E  E  E  E     E  E  E  E  E  E  E  E   
--------------------------|--------------------------|--0--------------------0--|--L-----------------------|
--------------------------|--------------------------|--1--------------3--------|--------------1-----------|
--2-----------------------|--1-----------------------|--0--------0--------------|--0-----0-----------0-----|
--3--------3--------3-----|--2--------2--------2-----|--2--------2--------2-----|--2--------2--------2-----|
--3--------3--------3-----|--2--------2--------2-----|--3--3--3--3--3--3--3--3--|--3--3--3--3--3--3--3--3--|
--1--1--1--1--1--1--1--1--|--0--0--0--0--0--0--0--0--|--------------------------|--------------------------|




  E  E  E  E  E  E  E  E     E  E  E  E  E  E  E  E     E  E  E  E  E  E  E  E     E  E  E  E  E  E  E  E   
--------------------------|--------------------------|--------------------------|--------------------------|
--1-----------------------|--0-----------------------|--------------------------|--------------------1-----|
--2-----------------------|--1-----------------------|--2-----------------------|--------------------------|
--3--------3--------3-----|--2--------2--------2-----|--2-----------0-----------|--2-----------3-----------|
--3--------3--------3-----|--2--------2--------2-----|--0--0--0--0--0--0--0--0--|--0--0--0--0--0--0--0--0--|
--1--1--1--1--1--1--1--1--|--0--0--0--0--0--0--0--0--|--------------------------|--------------------------|




  E  E  E  E  E  E  E  E     E  E  E  E  E  E  E  E     E  E  E  E  E  E  E  E     E  E  E  E  E  E  E  E   
--------------------------|--0-----------------------|--------------------------|--3-----------------------|
--------------------------|-----0--1-----1-----1-----|--1-----------------1-----|--------------------------|
--2-----------------2-----|--2--------2--------------|--0--------0--------0-----|--0-----0-----0-----------|
--2--------2--------2-----|--2-----2-----2-----------|--2--------2--------2-----|--2-----2-----2-----------|
--0--0--0--0--0--0--0--0--|--0--0--0--0--0--0--0--0--|--3--3--3--3--3--3--3--3--|--3--3--3--3--3--3--3--3--|
--------------------------|--------------------------|--------------------------|--------------------------|




  E  E  E  E  E  E  E  E     E  E  E  E  E  E  E  E     E  E  E  E  E  E  E  E     E  E  E  E  E  E  E  E   
--1-----------------------|--5-----------1-----------|--0-----------------------|--------------------------|
--3-----------3-----------|--------------------------|--0-----0-----0-----0-----|--------------------------|
--2--------2--------2-----|--2-----2-----2-----------|-----1-----1-----1-----1--|--1-----------------------|
--0--0--0--0--0--0--0--0--|--0--0--0--0--0--0--0--0--|--2--------2--------2-----|--2-----2-----2-----2-----|
--------------------------|--------------------------|--2--------2--------2-----|--2--2-----2-----2-----2--|
--------------------------|--------------------------|--0--0--0--0--0--0--0--0--|--0--0--0--0--0--0--0--0--|




  E  E  E  E  E  E  E  E     E  E  E  E  E  E  E  E     E  E  E  E  E  E  E  E     E  E  E  E  E  E  E  E   
--------------------------|--0-----------------------|--------------------------|--3-----------------------|
--------------------------|-----0--1-----1-----1-----|--1-----------------1-----|--------------------------|
--2-----------------2-----|--2--------2--------------|--0--------0--------0-----|--0-----0-----0-----------|
--2--------2--------2-----|--2-----2-----2-----------|--2--------2--------2-----|--2-----2-----2-----------|
--0--0--0--0--0--0--0--0--|--0--0--0--0--0--0--0--0--|--3--3--3--3--3--3--3--3--|--3--3--3--3--3--3--3--3--|
--------------------------|--------------------------|--------------------------|--------------------------|




  E  E  E  E  E  E  E  E     E  E  E  E  E  E  E  E     E  E  E  E  E  E  E  E     E  E  E  E  E  E  E  E   
--1-----------------------|--------------------------|--------------------------|--------------------------|
--3-----------3-----------|--------------------------|--------------------------|--------------------------|
--2--------2--------2-----|--2-----------------------|--------------------------|--------------------------|
--0--0--0--0--0--0--0--0--|--------------3-----------|--2-----------2-----------|--2-----------2-----------|
--------------------------|--5--5--5--5--5--5--5--5--|--2-----2-----------2-----|--------2-----------2-----|
--------------------------|--------------------------|--0--0--0--0--0--0--0--0--|--0--0--0--0--0--0--0--0--|




  E  E  E  E  E  E  E  E     E  E  E  E  E  E  E  E     E  E  E  E  E  E  E  E     E  E  E  E  E  E  E  E   
--1-----------------------|--0-----------------------|--------------------------|--------------0-----------|
--------------------------|--------------------------|--0-----------------------|--3-----------------------|
--2-----------4-----------|--1-----------------------|--------------2-----------|--2-----------2-----------|
--3--------3--3-----------|--2-----------2-----------|--2--------2--2-----------|--2-----2-----2-----2-----|
--------------------------|--2-----2-----2-----2-----|--0--0--0--0--0--0--0--0--|--0--0--0--0--0--0--0--0--|
--1--1--1--1--1--1--1--1--|--0--0--0--0--0--0--0--0--|--------------------------|--------------------------|




  E  E  E  E  E  E  E  E     E  E  E  E  E  E  E  E     E  E  E  E  E  E  E  E     E  E  E  E  E  E  E  E   
--1-----------------------|--0-----------------------|--------------------------|--------------0-----------|
--------------------------|--------------------------|--1-----------0-----------|--3-----------------------|
--2-----------4-----------|--1-----------------------|--2-----------2-----------|--2-----------2-----------|
--3--------3--3-----------|--2-----------2-----------|--2--------2--2-----------|--2-----2-----2-----2-----|
--------------------------|--2-----2-----2-----2-----|--0--0--0--0--0--0--0--0--|--0--0--0--0--0--0--0--0--|
--1--1--1--1--1--1--1--1--|--0--0--0--0--0--0--0--0--|--------------------------|--------------------------|




  E  E  E  E  E  E  E  E     E  E  E  E  E  E  E  E     E  E  E  E  E  E  E  E     E  E  E  E  E  E  E  E   
--1-----------------------|--0-----------------------|--------------------------|--------------0-----------|
--------------------------|--------------------------|--1-----------0-----------|--3-----------------------|
--2-----------4-----------|--1-----------------------|--2-----------2-----------|--2-----------2-----------|
--3--------3--3-----------|--2-----------2-----------|--2--------2--2-----------|--2-----2-----2-----2-----|
--------------------------|--2-----2-----2-----2-----|--0--0--0--0--0--0--0--0--|--0--0--0--0--0--0--0--0--|
--1--1--1--1--1--1--1--1--|--0--0--0--0--0--0--0--0--|--------------------------|--------------------------|




  E  E  E  E  E  E  E  E     E  E  E  E  E  E  E  E     E  E  E  E  E  E  E  E     E  E  E  E  E  E  E  E   
--1-----------------------|--0-----------------------|--------------------------|--------------------------|
--------------------------|--------------------------|--------------------------|--------------------------|
--2-----------4-----------|--1-----------------------|--2-----------------------|--L-----------------------|
--3--------3--3-----------|--2-----------2-----------|--2--------2--------2-----|--2-----2-----2-----------|
--------------------------|--2-----2-----2-----2-----|--0--0--0--0--0--0--0--0--|--0--0--0--0--0--0--0--0--|
--1--1--1--1--1--1--1--1--|--0--0--0--0--0--0--0--0--|--------------------------|--------------------------|




  E  E  E  E  E  E  E  E     E  E  E  E  E  E  E  E     E  E  E  E  E  E  E  E     E  E  E  E  E  E  E  E   
--------------------------|--------------------------|--------------------------|--------------------------|
-----0--1-----1-----1-----|-----0--1-----1--3--1--0--|-----0--1-----1-----1-----|--------------------------|
--2--------2--------2-----|--2--------2--------2-----|--2--------2--------2-----|--------------------1-----|
--2--------2--------2-----|--------2-----2-----------|--2--------2--------2-----|--2-----------3-----2-----|
--0--0--0--0--0--0--0--0--|--0--0--0--0--0--0--0--0--|--0--0--0--0--0--0--0--0--|--0--0--0--0--0--0--0--0--|
--------------------------|--------------------------|--------------------------|--------------------------|




  E  E  E  E  E  E  E  E     E  E  E  E  E  E  E  E     E  E  E  E  E  E  E  E     E  E  E  E  E  E  E  E   
--------------------------|--------------------------|--------------------------|--------------------------|
-----0--1-----1-----1-----|-----0--1-----1--3--1--0--|-----0--1-----1-----1-----|--------------------------|
--2--------2--------2-----|--2--------2--------2-----|--2--------2--------2-----|--------------------1-----|
--2--------2--------2-----|--------2-----2-----------|--2--------2--------2-----|--2-----------3-----2-----|
--0--0--0--0--0--0--0--0--|--0--0--0--0--0--0--0--0--|--0--0--0--0--0--0--0--0--|--0--0--0--0--0--0--0--0--|
--------------------------|--------------------------|--------------------------|--------------------------|




  E  E  E  E  E  E  E  E     E  E  E  E  E  E  E  E     E  E  E  E  E  E  E  E     E  E  E  E  E  E  E  E   
--------------------------|--------------0-----------|--------------------------|--------------------------|
--------------0-----1-----|--3-----------0-----------|--------------------------|--------------------------|
--2-----------------2-----|--1-----------------------|--2-----------------------|--L-----------------------|
--2--------2--------2-----|--2--------2--------2-----|--2--------2--------2-----|--2--------2--------2-----|
--0--0--0--0--0--0--0--0--|--2--------2--------2-----|--0--0--0--0--0--0--0--0--|--0--0--0--0--0--0--0--0--|
--------------------------|--0--0--0--0--0--0--0--0--|--------------------------|--------------------------|




  E  E  E  E  E  E  E  E     E  E  E  E  E  E  E  E     E  E  E  E  E  E  E  E     E  E  E  E  E  E  E  E   
--------------------------|--------------------------|--------------------------|--0-----------1-----4-----|
-----0--1-----1-----1-----|-----0--1-----1--3--1--0--|-----0--1-----1-----1-----|--1-----------3-----5-----|
--2--------2--------2-----|--2--------2--------2-----|--2--------2--------2-----|--2-----------4-----4-----|
--2--------2--------2-----|--------2-----2-----------|--2--------2--------2-----|--------------------------|
--0--0--0--0--0--0--0--0--|--0--0--0--0--0--0--0--0--|--0--0--0--0--0--0--0--0--|--0--0--0--0--0--0--0--0--|
--------------------------|--------------------------|--------------------------|--------------------------|




  E  E  E  E  E  E  E  E     E  E  E  E  E  E  E  E     E  E  E  E  E  E  E  E     E  E  E  E  E  E  E  E   
--5-----------------------|--------------------------|--------------------------|--0-----------1-----4-----|
-----0--1-----1-----1-----|-----0--1-----1--3--1--0--|-----0--1-----1-----1-----|--1-----------3-----5-----|
-----------2--------------|--2--------2--------2-----|--2--------2--------2-----|--2-----------4-----4-----|
--------------------------|--------2-----2-----------|--2--------2--------2-----|--------------------------|
--0--0--0--0--0--0--0--0--|--0--0--0--0--0--0--0--0--|--0--0--0--0--0--0--0--0--|--0--0--0--0--0--0--0--0--|
--------------------------|--------------------------|--------------------------|--------------------------|




  E  E  E  E  E  E  E  E     E  E  E  E  E  E  E  E     E  E  E  E  E  E  E  E     E  E  E  E  E  E  E  E   
--5-----------------------|--0-----1-----0-----------|--------------------------|--------------------------|
--5-----------------------|--------0-----------3-----|--1-----------------0-----|--------------------------|
--2-----------------------|--1-----------1-----1-----|--2-----------------1-----|--2-----------------------|
--2-----------2-----------|--2-----3-----2-----0-----|--2--------2--------2-----|--2-----------2-----------|
--0--0--0--0--0--0--0--0--|--------------------------|--0--0--0--0--0--0--0--0--|--0--0--0--0--0--0--0--0--|
--------------------------|--0--0--0--0--0--0--0--0--|--------------------------|--------------------------|




  E  E  E  E  E  E  E  E     E  E  E  E  E  E  E  E     E  E  E  E  E  E  E  E     E  E  E  E  E  E  E  E   
--0-----------------------|--0-----1-----0-----------|--0-----------------------|--5-----------------------|
--1-----------------------|--0-----0-----0-----3-----|--1-----------------1-----|--5-----------------------|
--2-----------------------|--------------------4-----|--2-----------------2-----|--2-----------------------|
--2--------2--------2-----|--2-----3-----2-----0-----|--2-----------------2-----|--2-----------------2-----|
--0--0--0--0--0--0--0--0--|--------------------------|--0--0--0--0--0--0--0--0--|--0--0--0--0--0--0--0--0--|
--------------------------|--0--0--0--0--0--0--0--0--|--------------------------|--------------------------|




  E  E  E  E  E  E  E  E     E  E  E  E  E  E  E  E     E  E  E  E  E  E  E  E     E  E  E  E  E  E  E  E   
--------------------------|--------------------------|--------------------------|--------------------------|
-----0--1-----1-----1-----|-----0--1-----------------|-----0--1-----1-----1-----|-----0--1-----1-----1-----|
--2-----2--2--2-----2-----|--2-----2-----2-----2-----|--2-----2--2--2-----2-----|--2-----2--2--2-----2-----|
--2--------2--------2-----|--2-----------2-----2-----|--2--------2--------2-----|--2--------2--------2-----|
--0--0--0--0--0--0--0--0--|--0--0--0--0--0--0--0--0--|--0--0--0--0--0--0--0--0--|--0--0--0--0--0--0--0--0--|
--------------------------|--------------------------|--------------------------|--------------------------|




  E  E  E  E  E  E  E  E     E  E  E  E  E  E  E  E     E  E  E  E  E  E  E  E     E  E  E  E  E  E  E  E   
--------------------------|--------------------------|--------------------------|--4-----------------------|
-----0--1-----1-----1-----|-----0--1-----1-----1-----|--0-----0-----0-----0-----|--0-----0-----0-----0-----|
--2-----2--2--2-----2-----|--2-----2-----2-----2-----|--1-----1-----1-----1-----|--1-----1-----1-----1-----|
--2--------2--------2-----|--2-----------------2-----|--2-----------------2-----|--2-----------------2-----|
--0--0--0--0--0--0--0--0--|--0--0--0--0--0--0--0--0--|--2-----------------2-----|--------------------------|
--------------------------|--------------------------|--0--0--0--0--0--0--0--0--|--0--0--0--0--0--0--0--0--|




  E  E  E  E  E  E  E  E     E  E  E  E  E  E  E  E     E  E  E  E  E  E  E  E     E  E  E  E  E  E  E  E   
--0-----------------------|--0--1--0--1--0--1--0--1--|--0-----1-----------------|--------------------------|
--0-----0-----0-----0-----|--------------------------|--------3-----0-----------|--------------------------|
--1-----1-----1-----1-----|--1--1--1--1--1--1--1--1--|--1-----------------1-----|--------------------------|
--2-----------------2-----|--2-----2-----2-----2-----|--2-----3-----2-----------|--2-----------------------|
--------------------------|--------------------------|--------------------2-----|--2-----------------2-----|
--0--0--0--0--0--0--0--0--|--0--0--0--0--0--0--0--0--|--0--0--0--0--0--0--0--0--|--0--0--0--0--0--0--0--0--|




  E  E  E  E  E  E  E  E     E  E  E  E  E  E  E  E     E  E  E  E  E  E  E  E     E  E  E  E  E  E  E  E   
--------------------------|--------------------------|--------0-----0-----0-----|--------0-----0-----0-----|
-----0--1-----1-----1-----|-----0--1-----1-----1-----|--1--3-----1--1-----1-----|--1--3-----1-----1--------|
--2-----2--2--2-----2-----|--2-----2--2--2-----2-----|--0--------0--------0-----|--0-----0-----0-----------|
--2--------2--------2-----|--2-----2-----2-----------|--2--------2--------2-----|--------2-----2-----------|
--0--0--0--0--0--0--0--0--|--0--0--0--0--0--0--0--0--|--3--3--3--3--3--3--3--3--|--3--3--3--3--3--3--3--3--|
--------------------------|--------------------------|--------------------------|--------------------------|




  E  E  E  E  E  E  E  E     E  E  E  E  E  E  E  E     E  E  E  E  E  E  E  E     E  E  E  E  E  E  E  E   
--1--0--------1--0--------|--1--0--------1--0--------|--0-----0-----0-----------|--0-----0-----0-----------|
--------3-----------3-----|--------3-----------3-----|--------------------0-----|--------------------0-----|
--2--------2--------2-----|--------2-----2-----------|--1-----1-----1-----------|--1-----1-----1-----------|
--0--0--0--0--0--0--0--0--|--0--0--0--0--0--0--0--0--|--2--------2--------2-----|--------2-----2-----2-----|
--------------------------|--------------------------|--2--------2--------2-----|--------2-----2-----------|
--------------------------|--------------------------|--0--0--0--0--0--0--0--0--|--0--0--0--0--0--0--0--0--|




  E  E  E  E  E  E  E  E     E  E  E  E  E  E  E  E     E  E  E  E  E  E  E  E     E  E  E  E  E  E  E  E   
--------------------------|--0-----------------------|--------0-----0-----0-----|--3-----0-----------0-----|
-----0--1-----1-----1-----|--------1-----------1-----|--1--3--------1-----1-----|--1--------3--1-----1-----|
--2-----2--2--2-----2-----|--2-----2-----2-----2-----|--0--------0--------0-----|--------0-----0-----------|
--2--------2--------2-----|--------2-----2-----------|--2--------2--------2-----|--------2-----2-----------|
--0--0--0--0--0--0--0--0--|--0--0--0--0--0--0--0--0--|--3--3--3--3--3--3--3--3--|--3--3--3--3--3--3--3--3--|
--------------------------|--------------------------|--------------------------|--------------------------|




  E  E  E  E  E  E  E  E     E  E  E  E  E  E  E  E     E  E  E  E  E  E  E  E     E  E  E  E  E  E  E  E   
--1--0--------1--0--------|--1--0--------1--0--------|--0-----------------------|--------------------------|
--------3-----------3-----|--------3-----------3-----|--0-----------0-----------|--------------------------|
--2--------2--------2-----|--------2-----2-----------|--1-----------1-----1-----|--------------------------|
--0--0--0--0--0--0--0--0--|--0--0--0--0--0--0--0--0--|--2--------2--------2-----|--2-----------------------|
--------------------------|--------------------------|--2--------2--------2-----|--------2-----2-----------|
--------------------------|--------------------------|--0--0--0--0--0--0--0--0--|--0--0--0--0--0--0--0--0--|




  E  E  E  E  E  E  E  E     E  E  E  E  E  E  E  E     E  E  E  E  E  E  E  E     E  E  E  E  E  E  E  E   
--------------------------|--------------------------|--------------------------|--------------5-----------|
--------------------------|--------------------------|--------------------------|--5-----------------------|
--2-----------------------|--1-----------------------|--2-----------------------|--2-----2-----2-----------|
--3--------3--------3-----|--2--------2--------2-----|--2--------2--------2-----|--2-----2-----2-----------|
--3--------3--------3-----|--2--------2--------2-----|--0--0--0--0--0--0--0--0--|--0--0--0--0--0--0--0--0--|
--1--1--1--1--1--1--1--1--|--0--0--0--0--0--0--0--0--|--------------------------|--------------------------|




  E  E  E  E  E  E  E  E     E  E  E  E  E  E  E  E     E  E  E  E  E  E  E  E     E  E  E  E  E  E  E  E   
--1-----------------------|--0-----------------------|--------------------------|--------------5-----------|
--1-----------------------|--0-----------------------|--------------------------|--5-----------------------|
--2-----------------------|--1-----------------------|--2-----------------------|--2-----2-----2-----------|
--3--------3--------3-----|--2-----------------------|--2--------2--------2-----|--2-----2-----2-----------|
--3--------3--------3-----|--------2-----3-----2-----|--0--0--0--0--0--0--0--0--|--0--0--0--0--0--0--0--0--|
--1--1--1--1--1--1--1--1--|--0--0--0--0--0--0--0--0--|--------------------------|--------------------------|




  E  E  E  E  E  E  E  E     E  E  E  E  E  E  E  E     E  E  E  E  E  E  E  E     E  E  E  E  E  E  E  E   
--1-----------------------|--0-----------------------|--------------------------|--------------5-----------|
--1-----------------------|--0-----------------------|--------------------------|--5-----------------------|
--2-----------------------|--1-----------------------|--2-----------------------|--2-----2-----2-----------|
--3--------3--------3-----|--2-----------------------|--2--------2--------2-----|--2-----2-----2-----------|
--3--------3--------3-----|--------2-----3-----2-----|--0--0--0--0--0--0--0--0--|--0--0--0--0--0--0--0--0--|
--1--1--1--1--1--1--1--1--|--0--0--0--0--0--0--0--0--|--------------------------|--------------------------|




  E  E  E  E  E  E  E  E     E  E  E  E  E  E  E  E     E  E  E  E  E  E  E  E     E  E  E  E  E  E  E  E   
--1-----------------------|--0-----------------------|--------------------------|--------------------------|
--1-----------------------|--0-----------------------|--------------------------|--0-----------1-----------|
--2-----------------------|--1-----------------------|--2-----------------------|--2-----2-----2-----------|
--3--------3--------3-----|--2-----------------------|--2--------2--------2-----|--2-----2-----2-----------|
--3--------3--------3-----|--------2-----3-----2-----|--0--0--0--0--0--0--0--0--|--0--0--0--0--0--0--0--0--|
--1--1--1--1--1--1--1--1--|--0--0--0--0--0--0--0--0--|--------------------------|--------------------------|




  E  E  E  E  E  E  E  E     E  E  E  E  E  E  E  E     E  E  E  E  E  E  E  E     E  E  E  E  E  E  E  E   
--------------------------|--------------0-----------|--0-----------------------|--L-----------------------|
--1-----------------------|--3-----------------------|--1-----------------------|--------------3-----1-----|
--2--------2--------2-----|--2-----2--2--2-----2-----|--2--------2--------2-----|--2--2--2--2--2-----2-----|
--2--------2--------2-----|--2-----2--2--2-----2-----|--2--------2--------2-----|--2--2--2--2--2-----2-----|
--0--0--0--0--0--0--0--0--|--0--0--0--0--0--0--0--0--|--0--0--0--0--0--0--0--0--|--0--0--0--0--0--0--0--0--|
--------------------------|--------------------------|--------------------------|--------------------------|




  E  E  E  E  E  E  E  E     E  E  E  E  E  E  E  E     E  E  E  E  E  E  E  E     E  E  E  E  E  E  E  E   
--------------------------|--------------------------|--------------------------|--------------------------|
--------------------------|--------------------------|--------------------------|--------------------------|
--2-----------------------|--------------------------|--2-----------------------|--2-----------------------|
--2--------2--------2-----|--2-----------------------|--2--------2--------2-----|--2--------2--------2-----|
--0--0--0--0--0--0--0--0--|--3-----------3-----------|--0--0--0--0--0--0--0--0--|--0--0--0--0--0--0--0--0--|
--------------------------|--5--5--5--5--5--5--5--5--|--------------------------|--------------------------|




  E  E  E  E  E  E  E  E     E  E  E  E  E  E  E  E     E  E  E  E  E  E  E  E     E  E  E  E  E  E  E  E   
--------------------------|--0-----------------------|--------------------0-----|--------------------------|
--0-----------------------|--1-----------------------|--3-----------------------|--1-----------------------|
--1-----------------------|--2-----------------------|--2-----2-----2-----------|--0--------0--------0-----|
--0-----2-----2-----------|--2--------2--------2-----|--2-----2-----2-----------|--2--------2--------2-----|
--0--0--0--0--0--0--0--0--|--0--0--0--0--0--0--0--0--|--0--0--0--0--0--0--0--0--|--3--3--3--3--3--3--3--3--|
--------------------------|--------------------------|--------------------------|--------------------------|




  E  E  E  E  E  E  E  E     E  E  E  E  E  E  E  E     E  E  E  E  E  E  E  E     E  E  E  E  E  E  E  E   
--1-----------------------|--3-----------------------|--1-----------0-----------|--------------------------|
--1-----------------1-----|--1-----------------------|--1-----------1-----------|--------------3-----------|
--0-----0-----0-----------|--0--------0--------0-----|--0-----0-----0-----------|--2--------2--------2-----|
--------------------------|--2--------2--------2-----|--------------------------|--0--0--0--0--0--0--0--0--|
--3--3--3--3--3--3--3--3--|--3--3--3--3--3--3--3--3--|--3--3--3--3--3--3--3--3--|--------------------------|
--------------------------|--------------------------|--------------------------|--------------------------|




  E  E  E  E  E  E  E  E      E  E  E  E   E  E  E  E     E  E  E  E  E  E  E  E     E  E  E  E  E  E  E  E   
--3-----------5-----------|--10------------------------|--1-----------------------|--0-----------------------|
--3-----------3-----------|---------------10-----------|--3-----------3-----------|--------------------------|
--2-----2-----2-----------|---7--------7---------7-----|--2-----2-----2-----------|--1-----------------------|
--0--0--0--0--0--0--0--0--|---0--0--0--0---0--0--0--0--|--0--0--0--0--0--0--0--0--|--2--------2--------2-----|
--------------------------|----------------------------|--------------------------|--2--------2--------2-----|
--------------------------|----------------------------|--------------------------|--0--0--0--0--0--0--0--0--|




  E  E  E  E   E  E  E  E      E  E  E  E  E  E  E  E     E  E  E  E  E  E  E  E     E  E  E  E  E  E  E  E   
--5------------8-----------|--12-----------------------|--4-----------------------|--------------------------|
--5-----------10-----------|---9-----------------------|--------------------------|-----0--1-----1-----1-----|
---------------9-----------|---------------------------|--------------------------|--2--------2--------2-----|
--2-----2------------------|---------------------------|--2-----2-----2-----2-----|--2--------2--------2-----|
--2-----2------------------|---7--------7--------7-----|--2-----2-----2-----2-----|--0--0--0--0--0--0--0--0--|
--0--0--0--0---0--0--0--0--|---0--0--0--0--0--0--0--0--|--0--0--0--0--0--0--0--0--|--------------------------|




  E  E  E  E  E  E  E  E     E  E  E  E  E  E  E  E     E  E  E  E  E  E  E  E     E  E  E  E  E  E  E  E   
--------------------------|--------0-----0-----0-----|--------0-----0-----0-----|--1--0--------1-----1-----|
-----0--1-----1-----1-----|--1--3-----1--------------|--1--3-----1--------------|--------3-----------------|
--2--------2--2-----------|--0--------0--------0-----|--0-----0-----0-----------|--2--------2--------2-----|
--2-----2-----2-----------|--2--------2--------2-----|--2-----2-----2-----------|--0--0--0--0--0--0--0--0--|
--0--0--0--0--0--0--0--0--|--3--3--3--3--3--3--3--3--|--3--3--3--3--3--3--3--3--|--------------------------|
--------------------------|--------------------------|--------------------------|--------------------------|




  E  E  E  E  E  E  E  E     E  E  E  E  E  E  E  E     E  E  E  E  E  E  E  E     E  E  E  E  E  E  E  E   
--1--0--------------------|--0-----0-----------------|--------------------------|--------------------------|
--------3--1--0-----0-----|--------------------------|--------------------------|-----0--1-----1-----1-----|
--------2-----2-----------|--------------1-----1-----|--1--2--1-----1-----1-----|--2--------2--------2-----|
--0--0--0--0--0--0--0--0--|--2--------2--------2-----|--------2-----2-----------|--2--------2--------2-----|
--------------------------|--2--------2--------2-----|--------2-----2-----------|--0--0--0--0--0--0--0--0--|
--------------------------|--0--0--0--0--0--0--0--0--|--0--0--0--0--0--0--0--0--|--------------------------|




  E  E  E  E  E  E  E  E     E  E  E  E  E  E  E  E     E  E  E  E  E  E  E  E     E  E  E  E  E  E  E  E   
--0-----------------------|--------0-----0-----0-----|--3-----0-----0-----0-----|--5--0--------1-----1-----|
-----0--1-----1-----1-----|--1--3--------------------|-----3--------------------|--------3-----------------|
--------2--2--2--2--------|--0--------0--------0-----|--------0-----0-----------|--2--------2--------2-----|
--------2-----2-----------|--2--------2--------2-----|--------2-----2-----------|--0--0--0--0--0--0--0--0--|
--0--0--0--0--0--0--0--0--|--3--3--3--3--3--3--3--3--|--3--3--3--3--3--3--3--3--|--------------------------|
--------------------------|--------------------------|--------------------------|--------------------------|




  E  E  E  E  E  E  E  E     E  E  E  E  E  E  E  E     E  E  E  E  E  E  E  E     E  E  E  E  E  E  E  E   
--1--0--------------------|--------------------------|--0-----------------------|--------------------------|
--------3--1--0--1--0--1--|--0-----0-----------------|--------------------------|--------------------------|
--2-----2-----2-----------|--------------2-----2-----|-----2--1--2--1--2--1--2--|--2-----------------------|
--0--0--0--0--0--0--0--0--|--2-----2-----------2-----|--------2-----2-----------|--3--------3--------3-----|
--------------------------|--2-----2-----------2-----|--------2-----2-----------|--3--------3--------3-----|
--------------------------|--0--0--0--0--0--0--0--0--|--0--0--0--0--0--0--0--0--|--1--1--1--1--1--1--1--1--|




  E  E  E  E  E  E  E  E     E  E  E  E  E  E  E  E     E  E  E  E  E  E  E  E     E  E  E  E  E  E  E  E   
--------------------------|--0-----------------0-----|--------------------------|--------------------------|
--------------------------|--1-----------3-----------|--------------1-----------|--------------------------|
--1-----------------------|--0-----0-----------0-----|--0-----0-----------0-----|--2-----------------------|
--2--------2--------2-----|--2--------2--------2-----|--2--------2--------2-----|--3--------3--------3-----|
--2--------2--------2-----|--3--3--3--3--3--3--3--3--|--3--3--3--3--3--3--3--3--|--3--------3--------3-----|
--0--0--0--0--0--0--0--0--|--------------------------|--------------------------|--1--1--1--1--1--1--1--1--|




  E  E  E  E  E  E  E  E     E  E  E  E  E  E  E  E     E  E  E  E  E  E  E  E     E  E  E  E  E  E  E  E   
--------------------------|--------------------------|--0-----------1-----------|--------------------------|
--------------------------|--------------3-----------|--------------------1-----|-----0--1-----1-----1-----|
--1-----------------------|--2-----------------------|--------2--2--2-----------|--2--------2--------2-----|
--2--------2--------2-----|--2--------2--------2-----|--------2--2--2-----------|--2--------2--------2-----|
--2--------2--------2-----|--0--0--0--0--0--0--0--0--|--0--0--0--0--0--0--0--0--|--0--0--0--0--0--0--0--0--|
--0--0--0--0--0--0--0--0--|--------------------------|--------------------------|--------------------------|




  E  E  E  E  E  E  E  E     E  E  E  E  E  E  E  E     E  E  E  E  E  E  E  E     E  E  E  E  E  E  E  E   
--------------------------|--------0-----0-----0-----|--------0-----0-----0-----|--1--0--------1--0--------|
-----0--1-----1-----1-----|--1--3-----1--------------|--1--3-----1--------------|--3-----3-----------3-----|
--2--------2--------------|--0--------0--------0-----|--0-----0-----0-----------|--2--------2--------2-----|
--2-----2-----2-----------|--2--------2--------2-----|--2-----2-----2-----------|--0--0--0--0--0--0--0--0--|
--0--0--0--0--0--0--0--0--|--3--3--3--3--3--3--3--3--|--3--3--3--3--3--3--3--3--|--------------------------|
--------------------------|--------------------------|--------------------------|--------------------------|




  E  E  E  E  E  E  E  E     E  E  E  E  E  E  E  E     E  E  E  E  E  E  E  E     E  E  E  E  E  E  E  E   
--1--0--------1--0--------|--0-----0-----0-----0-----|--------0-----0-----0-----|--0-----------------------|
--3-----3-----3-----3-----|--------------------------|--------------------------|-----0--1-----1-----1-----|
--2-----2--2--2-----------|-----1-----1-----1-----1--|--1--------1-----1-----1--|--2--------2--------2-----|
--0--0--0--0--0--0--0--0--|--2--------2--------2-----|--2-----2--2--2-----------|--2--------2--------2-----|
--------------------------|--2--------2--------2-----|--2-----2--2--2-----------|--0--0--0--0--0--0--0--0--|
--------------------------|--0--0--0--0--0--0--0--0--|--0--0--0--0--0--0--0--0--|--------------------------|




  E  E  E  E  E  E  E  E     E  E  E  E  E  E  E  E     E  E  E  E  E  E  E  E     E  E  E  E  E  E  E  E   
--5-----------------------|--------0-----0-----0-----|--3-----0-----0-----0-----|--1--0--------1--0--------|
-----0--1-----1-----1-----|--1--3-----1--------------|-----3-----1--------------|--3-----3-----------3-----|
-----------2--------------|--0--------0--------0-----|--0-----0--0--0-----------|--2--------2--------2-----|
--------2--2--2-----------|--2--------2--------2-----|--2-----2--2--2-----------|--0--0--0--0--0--0--0--0--|
--0--0--0--0--0--0--0--0--|--3--3--3--3--3--3--3--3--|--3--3--3--3--3--3--3--3--|--------------------------|
--------------------------|--------------------------|--------------------------|--------------------------|




  E  E  E  E  E  E  E  E     E  E  E  E  E  E  E  E     E  E  E  E  E  E  E  E     E  E  E  E  E  E  E  E   
--5--0--------1--0--------|--4-----------0-----------|--0-----------0-----------|--1-----------------------|
--------3-----------3-----|--------0-----------0-----|--------0-----------0-----|--------------------------|
--2-----2--2--2-----------|--------------------------|--------------------------|--2-----------4-----------|
--0--0--0--0--0--0--0--0--|--2--------2--------2-----|--2-----2--2--2-----2-----|--3--------3--3-----------|
--------------------------|--2--------2--------2-----|--2-----2--2--2-----2-----|--------------------------|
--------------------------|--0--0--0--0--0--0--0--0--|--0--0--0--0--0--0--0--0--|--1--1--1--1--1--1--1--1--|




  E  E  E  E  E  E  E  E     E  E  E  E  E  E  E  E     E  E  E  E  E  E  E  E     E  E  E  E  E  E  E  E   
--0-----------------------|--------------------------|--------------0-----------|--1-----------------------|
--------------0-----------|--1-----------0-----------|--3-----------------------|--------------------------|
--1-----------------------|--2--------2--2-----------|--2-----2-----2-----2-----|--2-----------4-----------|
--2-----------2-----------|--2--------2--2-----------|--2-----2-----2-----2-----|--3--------3--3-----------|
--2-----2-----2-----2-----|--0--0--0--0--0--0--0--0--|--0--0--0--0--0--0--0--0--|--------------------------|
--0--0--0--0--0--0--0--0--|--------------------------|--------------------------|--1--1--1--1--1--1--1--1--|




  E  E  E  E  E  E  E  E     E  E  E  E  E  E  E  E     E  E  E  E  E  E  E  E     E  E  E  E  E  E  E  E   
--0-----------------------|--------------------------|--------------0-----------|--1-----------------------|
--------------0-----------|--1-----------0-----------|--3-----------------------|--------------------------|
--1-----------------------|--2--------2--2-----------|--2-----2-----2-----2-----|--2-----------4-----------|
--2-----------2-----------|--2--------2--2-----------|--2-----2-----2-----2-----|--3--------3--3-----------|
--2-----2-----2-----2-----|--0--0--0--0--0--0--0--0--|--0--0--0--0--0--0--0--0--|--------------------------|
--0--0--0--0--0--0--0--0--|--------------------------|--------------------------|--1--1--1--1--1--1--1--1--|




  E  E  E  E  E  E  E  E     E  E  E  E  E  E  E  E     E  E  E  E  E  E  E  E     E  E  E  E  E  E  E  E   
--0-----------------------|--------------------------|--------------0-----------|--1-----------------------|
--------------0-----------|--1-----------0-----------|--3-----------------------|--------------------------|
--1-----------------------|--2--------2--2-----------|--2-----2-----2-----2-----|--2-----------4-----------|
--2-----------2-----------|--2--------2--2-----------|--2-----2-----2-----2-----|--3--------3--3-----------|
--2-----2-----2-----2-----|--0--0--0--0--0--0--0--0--|--0--0--0--0--0--0--0--0--|--------------------------|
--0--0--0--0--0--0--0--0--|--------------------------|--------------------------|--1--1--1--1--1--1--1--1--|




  E  E  E  E  E  E  E  E     E  E  E  E  E  E  E  E     E  E  E  E  E  E  E  E     E  E  E  E  E  E  E  E   
--0-----------------------|--------------------------|--------------0-----------|--1-----------------------|
--------------0-----------|--1-----------0-----------|--3-----------------------|--------------------------|
--1-----------------------|--2--------2--2-----------|--2-----2-----2-----2-----|--2-----------4-----------|
--2-----------2-----------|--2--------2--2-----------|--2-----2-----2-----2-----|--3--------3--3-----------|
--2-----2-----2-----2-----|--0--0--0--0--0--0--0--0--|--0--0--0--0--0--0--0--0--|--------------------------|
--0--0--0--0--0--0--0--0--|--------------------------|--------------------------|--1--1--1--1--1--1--1--1--|




  E  E  E  E  E  E  E  E     E  E  E  E  E  E  E  E     E  E  E  E  E  E  E  E     E  E  E  E  E  E  E  E   
--0-----------------------|--------------------------|--------------------------|--------------------------|
--------------------------|--------------------------|--------------------------|-----0--1-----1-----1-----|
--1-----------------------|--2-----------------------|--------------------------|--2--------2--------2-----|
--2-----------2-----------|--2--------2--2-----------|--2-----2-----2-----------|--2--------2--------2-----|
--2-----2-----2-----2-----|--0--0--0--0--0--0--0--0--|--0--0--0--0--0--0--0--0--|--0--0--0--0--0--0--0--0--|
--0--0--0--0--0--0--0--0--|--------------------------|--------------------------|--------------------------|




  E  E  E  E  E  E  E  E     E  E  E  E  E  E  E  E     E  E  E  E  E  E  E  E     E  E  E  E  E  E  E  E   
--------------------------|--------------------------|--------------------------|--------------------------|
-----0--1-----1--3--1--0--|-----0--1-----1-----1-----|--------------------------|-----0--1-----1-----1-----|
--2-----2--2--2-----------|--2--------2--------2-----|--------------------1-----|--2--------2--------2-----|
--------2-----2-----------|--2--------2--------2-----|--2-----------3-----2-----|--2--------2--------2-----|
--0--0--0--0--0--0--0--0--|--0--0--0--0--0--0--0--0--|--0--0--0--0--0--0--0--0--|--0--0--0--0--0--0--0--0--|
--------------------------|--------------------------|--------------------------|--------------------------|




  E  E  E  E  E  E  E  E     E  E  E  E  E  E  E  E     E  E  E  E  E  E  E  E     E  E  E  E  E  E  E  E   
--------------------------|--------------------------|--------------------------|--------------------------|
-----0--1-----1--3--1--0--|-----0--1-----1-----1-----|--------------------------|--------------0-----1-----|
--2-----2--2--2-----------|--2--------2--------2-----|--------------------1-----|--2-----------------2-----|
--------2-----2-----------|--2--------2--------2-----|--2-----------3-----2-----|--2--------2--2-----2-----|
--0--0--0--0--0--0--0--0--|--0--0--0--0--0--0--0--0--|--0--0--0--0--0--0--0--0--|--0--0--0--0--0--0--0--0--|
--------------------------|--------------------------|--------------------------|--------------------------|




  E  E  E  E  E  E  E  E     E  E  E  E  E  E  E  E     E  E  E  E  E  E  E  E     E  E  E  E  E  E  E  E   
--------------------------|--------------------------|--------------------------|--------------------------|
--------------------------|--------------------------|--------------------------|-----0--1-----1-----1-----|
--------------------------|--2-----------------------|--------------------------|--2--------2--------2-----|
--0-----------2-----------|--2--------2--------2-----|--2--------2--------2-----|--2--------2--------2-----|
--2--------2--2-----2-----|--0--0--0--0--0--0--0--0--|--0--0--0--0--0--0--0--0--|--0--0--0--0--0--0--0--0--|
--0--0--0--0--0--0--0--0--|--------------------------|--------------------------|--------------------------|




  E  E  E  E  E  E  E  E     E  E  E  E  E  E  E  E     E  E  E  E  E  E  E  E     E  E  E  E  E  E  E  E   
--------------------------|--------------------------|--0-----------1-----4-----|--5-----------------------|
-----0--1-----1--3--1--0--|-----0--1-----1-----1-----|--1-----------3-----5-----|-----0--1-----1-----1-----|
--2-----2--2--2-----------|--2--------2--------2-----|--2-----2-----4-----4-----|-----------2--------2-----|
--------2-----2-----------|--2--------2--------2-----|--------2-----------------|-----------2--------2-----|
--0--0--0--0--0--0--0--0--|--0--0--0--0--0--0--0--0--|--0--0--0--0--0--0--0--0--|--0--0--0--0--0--0--0--0--|
--------------------------|--------------------------|--------------------------|--------------------------|




  E  E  E  E  E  E  E  E     E  E  E  E  E  E  E  E     E  E  E  E  E  E  E  E     E  E  E  E  E  E  E  E   
--------------------------|--------------------------|--------------------------|--0-----------------------|
-----0--1-----1--3--1--0--|-----0--1-----1-----1-----|--0-----------------------|--1-----------------------|
--2-----2--2--2-----------|--2--------2--------2-----|--2-----------------------|--2--------2--2-----------|
--------2-----2-----------|--2--------2--------2-----|--2-----2-----2-----------|--2--------2--2-----------|
--0--0--0--0--0--0--0--0--|--0--0--0--0--0--0--0--0--|--------2-----2-----------|--0--0--0--0--0--0--0--0--|
--------------------------|--------------------------|--0--0--0--0--0--0--0--0--|--------------------------|




  E  E  E  E  E  E  E  E     E  E  E  E  E  E  E  E     E  E  E  E  E  E  E  E     E  E  E  E  E  E  E  E   
--0-----1-----0-----------|--0-----------------------|--------------------------|--0-----------------------|
--------0-----------3-----|--1-----------------0-----|--------------------------|--1-----------------------|
--1-----------1-----1-----|--2-----------------1-----|--2-----------------------|--2-----------------2-----|
--2-----2-----2-----2-----|--2-----------------2-----|--2-----------------2-----|--2-----------------2-----|
--2-----2-----2-----2-----|--0--0--0--0--0--0--0--0--|--0--0--0--0--0--0--0--0--|--0--0--0--0--0--0--0--0--|
--0--0--0--0--0--0--0--0--|--------------------------|--------------------------|--------------------------|




  E  E  E  E  E  E  E  E     E  E  E  E  E  E  E  E     E  E  E  E  E  E  E  E     E  E  E  E  E  E  E  E   
--0-----1-----0-----------|--0-----------------------|--5-----------------------|--------------------------|
--------3-----0-----3-----|--1-----------------1-----|--5-----------------------|-----0--1-----1-----1-----|
--1-----4-----1-----1-----|--2-----------------2-----|--2-----------------2-----|--2-----2--2--2-----2-----|
--2-----------------2-----|--2-----------------2-----|--2-----------------2-----|--2--2-----2--------2-----|
--2-----------------2-----|--0--0--0--0--0--0--0--0--|--0--0--0--0--0--0--0--0--|--0--0--0--0--0--0--0--0--|
--0--0--0--0--0--0--0--0--|--------------------------|--------------------------|--------------------------|




  E  E  E  E  E  E  E  E     E  E  E  E  E  E  E  E     E  E  E  E  E  E  E  E     E  E  E  E  E  E  E  E   
--------------------------|--------------------------|--------------------------|--------------------------|
-----0--1-----------------|-----0--1-----1-----1-----|-----0--1-----1-----1-----|-----0--1-----1-----1-----|
--2-----2-----2-----2-----|--2-----2--2--2-----2-----|--2-----2--2--2-----2-----|--2-----2--2--2-----2-----|
--2--2--------2-----2-----|--2--2-----2--------2-----|--2--2-----2--------2-----|--2--2-----2--------2-----|
--0--0--0--0--0--0--0--0--|--0--0--0--0--0--0--0--0--|--0--0--0--0--0--0--0--0--|--0--0--0--0--0--0--0--0--|
--------------------------|--------------------------|--------------------------|--------------------------|




  E  E  E  E  E  E  E  E     E  E  E  E  E  E  E  E     E  E  E  E  E  E  E  E     E  E  E  E  E  E  E  E   
--------------------------|--------------------------|--4-----------------------|--0-----------------------|
-----0--1-----1-----1-----|--0-----0-----0-----0-----|--0-----0-----0-----0-----|--0-----0-----0-----0-----|
--2-----2-----2-----2-----|--1-----1-----1-----1-----|--1-----1-----1-----1-----|--1-----1-----1-----1-----|
--2--2--------------2-----|--2-----------------2-----|--2-----------------2-----|--2-----------------2-----|
--0--0--0--0--0--0--0--0--|--2-----------------2-----|--------------------------|--2-----------------2-----|
--------------------------|--0--0--0--0--0--0--0--0--|--0--0--0--0--0--0--0--0--|--0--0--0--0--0--0--0--0--|




  E  E  E  E  E  E  E  E     E  E  E  E  E  E  E  E     E  E  E  E  E  E  E  E     E  E  E  E  E  E  E  E   
--0--1--0--1--0--1--0--1--|--0-----1-----------------|--------------------------|--------------------------|
--------------------------|--------3-----0-----------|--------------------------|-----0--1-----1-----1-----|
--1--1--1--1--1--1--1--1--|--1-----------------1-----|--------------------------|--2-----2--2--2-----2-----|
--2-----2-----2-----2-----|--2-----3-----2-----------|--2-----------------------|--2--2-----2--------2-----|
--------------------------|--------------------2-----|--2-----------------2-----|--0--0--0--0--0--0--0--0--|
--0--0--0--0--0--0--0--0--|--0--0--0--0--0--0--0--0--|--0--0--0--0--0--0--0--0--|--------------------------|




  E  E  E  E  E  E  E  E     E  E  E  E  E  E  E  E     E  E  E  E  E  E  E  E     E  E  E  E  E  E  E  E   
--------------------------|--------0-----0-----0-----|--------0-----0-----0-----|--1--0--------1--0--------|
-----0--1-----1-----1-----|--1--3-----1--1-----1-----|--1--3-----1-----1--------|--------3-----------3-----|
--2-----2--2--2-----2-----|--0--0-----0--------0-----|--0--0--0--0--0--0--------|--2--2-----2--2-----2-----|
--2--2--2-----2-----------|--2--------2--------2-----|--------2-----2-----------|--0--0--0--0--0--0--0--0--|
--0--0--0--0--0--0--0--0--|--3--3--3--3--3--3--3--3--|--3--3--3--3--3--3--3--3--|--------------------------|
--------------------------|--------------------------|--------------------------|--------------------------|




  E  E  E  E  E  E  E  E     E  E  E  E  E  E  E  E     E  E  E  E  E  E  E  E     E  E  E  E  E  E  E  E   
--1--0--------1--0--------|--0-----0-----0-----------|--0-----0-----0-----------|--------------------------|
--------3-----------3-----|--------------------0-----|--------------------0-----|-----0--1-----1-----1-----|
--2--2--2-----2--2--2-----|--1-----1-----1-----------|--1-----1-----1-----------|--2-----2--2--2-----2-----|
--0--0--0--0--0--0--0--0--|--2--------2--------2-----|--------2-----2-----2-----|--2--2-----2--------2-----|
--------------------------|--2--------2--------2-----|--------2-----2-----------|--0--0--0--0--0--0--0--0--|
--------------------------|--0--0--0--0--0--0--0--0--|--0--0--0--0--0--0--0--0--|--------------------------|




  E  E  E  E  E  E  E  E     E  E  E  E  E  E  E  E     E  E  E  E  E  E  E  E     E  E  E  E  E  E  E  E   
--0-----------------------|--------0-----0-----0-----|--3-----0-----------0-----|--1--0--------1--0--------|
--------1-----------1-----|--1--3--------1-----1-----|--1-----1-----1-----1-----|--------3-----------3-----|
--2-----2-----2-----2-----|--0--0-----0--------0-----|--------0-----0-----------|--2--2-----2--2--2--2-----|
--------2-----2-----------|--2--------2--------2-----|--------2-----2-----------|--0--0--0--0--0--0--0--0--|
--0--0--0--0--0--0--0--0--|--3--3--3--3--3--3--3--3--|--3--3--3--3--3--3--3--3--|--------------------------|
--------------------------|--------------------------|--------------------------|--------------------------|




  E  E  E  E  E  E  E  E     E  E  E  E  E  E  E  E     E  E  E  E  E  E  E  E     E  E  E  E  E  E  E  E   
--1--0--------1--0--------|--0-----------------------|--------------------------|--------------------------|
--------3-----------3-----|--0-----------0-----------|--------------------------|--------------------------|
--2--2--2-----2--2--2-----|--1-----------1-----1-----|--------------------------|--2-----------------------|
--0--0--0--0--0--0--0--0--|--2--------2--------2-----|--2-----------------------|--3--------3--------3-----|
--------------------------|--2--------2--------2-----|--2-----2-----2-----------|--3--------3--------3-----|
--------------------------|--0--0--0--0--0--0--0--0--|--0--0--0--0--0--0--0--0--|--1--1--1--1--1--1--1--1--|




  E  E  E  E  E  E  E  E     E  E  E  E  E  E  E  E     E  E  E  E  E  E  E  E     E  E  E  E  E  E  E  E   
--------------------------|--------------------------|--------------5-----------|--1-----------------------|
--------------------------|--------------------------|--5-----------------------|--1-----------------------|
--1-----------------------|--2-----------------------|--2-----2-----2-----------|--2-----------------------|
--2-----2-----2-----------|--2--------2--------2-----|--2-----2-----2-----------|--3--------3--------3-----|
--2-----2-----2-----------|--0--0--0--0--0--0--0--0--|--0--0--0--0--0--0--0--0--|--3--------3--------3-----|
--0--0--0--0--0--0--0--0--|--------------------------|--------------------------|--1--1--1--1--1--1--1--1--|




  E  E  E  E  E  E  E  E     E  E  E  E  E  E  E  E     E  E  E  E  E  E  E  E     E  E  E  E  E  E  E  E   
--0-----------------------|--------------------------|--------------5-----------|--1-----------------------|
--0-----------------------|--------------------------|--5-----------------------|--1-----------------------|
--1-----------------------|--2-----------------------|--2-----2-----2-----------|--2-----------------------|
--2-----------------------|--2--------2--------2-----|--2-----2-----2-----------|--3--------3--------3-----|
--------2-----3-----2-----|--0--0--0--0--0--0--0--0--|--0--0--0--0--0--0--0--0--|--3--------3--------3-----|
--0--0--0--0--0--0--0--0--|--------------------------|--------------------------|--1--1--1--1--1--1--1--1--|




  E  E  E  E  E  E  E  E     E  E  E  E  E  E  E  E     E  E  E  E  E  E  E  E     E  E  E  E  E  E  E  E   
--0-----------------------|--------------------------|--------------5-----------|--1-----------------------|
--0-----------------------|--------------------------|--5-----------------------|--1-----------------------|
--1-----------------------|--2-----------------------|--2-----2-----2-----------|--2-----------------------|
--2-----------------------|--2--------2--------2-----|--2-----2-----2-----------|--3--------3--------3-----|
--------2-----3-----2-----|--0--0--0--0--0--0--0--0--|--0--0--0--0--0--0--0--0--|--3--------3--------3-----|
--0--0--0--0--0--0--0--0--|--------------------------|--------------------------|--1--1--1--1--1--1--1--1--|




  E  E  E  E  E  E  E  E     E  E  E  E  E  E  E  E     E  E  E  E  E  E  E  E     E  E  E  E  E  E  E  E   
--0-----------------------|--------------------------|--------------------------|--------------------------|
--0-----------------------|--------------------------|--0-----------1-----------|--1-----------------------|
--1-----------------------|--2-----------------------|--2-----2-----2-----------|--2--------2--------2-----|
--2-----------------------|--2--------2--------2-----|--2-----2-----2-----------|--2--------2--------2-----|
--------2-----3-----2-----|--0--0--0--0--0--0--0--0--|--0--0--0--0--0--0--0--0--|--0--0--0--0--0--0--0--0--|
--0--0--0--0--0--0--0--0--|--------------------------|--------------------------|--------------------------|




  E  E  E  E  E  E  E  E     E  E  E  E  E  E  E  E     E  E  E  E  E  E  E  E     E  E  E  E  E  E  E  E   
--------------0-----------|--0-----------------------|--------------------------|--------------------------|
--3-----------------------|--1-----------------------|--------------3-----1-----|--------------------------|
--------2--2--2-----------|--2--------2--------2-----|--------2--2--2-----------|--2-----------------------|
--------2--2--2-----------|--2--------2--------2-----|--------2--2--2-----------|--2--------2--------2-----|
--0--0--0--0--0--0--0--0--|--0--0--0--0--0--0--0--0--|--0--0--0--0--0--0--0--0--|--0--0--0--0--0--0--0--0--|
--------------------------|--------------------------|--------------------------|--------------------------|


  E  E  E  E  E  E  E  E     E  E  E  E  E  E  E  E     W                                       
--0-----------------------|--------------------------|-------------------|-----||               
--1-----------1-----------|--------------------------|-------------------|-----||               
--------2--2--2-----------|--2-----------------------|--2----------------|-----||               
--------2--2--2-----------|--2--------2--------2--2--|--2----------------|-----||               
--0--0--0--0--0--0--0--0--|--0--0--0--0--0--0--0--0--|--0----------------|-----||               
--------------------------|--------------------------|-------------------|-----||  



                                                                         

W - whole      
H - half       
Q - quarter    
E - 8th        
S - 16th                   
T - 32nd
X - 64th
. - note dotted
|-n-|  - n-tuplets


Tablature Legend
----------------
L - tied note
x - dead note
g - grace note
(n) - ghost note
> - accentuded note
NH - natural harmonic
AH - artificial harmonic
TH - tapped harmonic
SH - semi harmonic
PH - pitch harmonic
h - hammer on
p - pull off
b - bend
br - bendRelease
pb - preBend
pbr - preBendRelease
brb - bendReleaseBend
\n/ - tremolo bar dip
\n - tremolo bar dive
-/n - tremolo bar Release up
/n\ - tremolo bar inverted dip
/n - tremolo bar return
-\n - tremolo bar Release down
S - shift slide
s - legato slide
/ -  slide into from below or out of upwards
\ -  slide into from above or out of downwards
~ - vibrato
W - wide vibrato
tr - trill
TP - tremolo picking
T - tapping
S - slap
P - pop
< - fade in
^ - brush up
v - brush down
Login or Register to remove this ad.

1 comment on A Serpent of the Twilight

Finally (!) got around to

5

Finally (!) got around to playing this all the way through in one shot and I have to say, this arrangement is genuinely epic.