Ads

Off to Sleep (Child of Light) Guitar Tab

Submitted: Feb 20, 2015 by Basisti94

5
Average: 5 (5 votes)
Download | Listen
Game: Child of Light
Composer(s): Cœur de pirate
Style: Arrangement, Fingerstyle

AutoScroll: Slow | Medium | Fast
    	 	Off to Sleep
                                
Child of Light
Coeur de pirate
Guitar Arrangement by Basisti94 (Miro Laaksonen)
20.2.2015



Capo 2
Tempo ~ 88

     W                   E  E  E  E  E  E  E  E     E  E  E  E  E  E  E  E   
E||-------------------|--------------------------|--------------------------|
B||--3----------------|--L-----------------------|--------------------------|
G||--0----------------|--L-----------------------|--------------------------|
D||-------------------|--------0-----0-----0-----|--------0-----0-----0-----|
A||-------------------|-----2-----2-----2-----2--|-----2-----2-----2-----2--|
E||-------------------|--3-----------------------|--3-----------------------|


  E  E  E  E  E  E  E  E     E  E  E  E  E  E  E  E   
--------------------------|--------------------------|
--0--------------------0--|--------0-----------------|
--------0-----------------|--------------------------|
--------0-----0-----0-----|--4-----0-----0--------4--|
-----2-----2-----2-----2--|-----2-----2-----2--------|
--3-----------------------|--2-----------------2-----|


  E  E  E  E  E  E  E  E     E  E  E  E  E  E  E  E   
--------------------------|--------------------------|
--0--------------------0--|--------------------------|
--------0-----------------|-----------4--5-----4-----|
--------0-----0-----0-----|--4-----4-----------------|
-----2-----2-----2-----2--|-----2-----2-----2-----2--|
--3-----------------------|--2-----------------------|


  E  E  E  E  E  E  E  E     E  E  E  E  S S E  E  E   
--------------------------|--0------------------------|
--------------0-----3--0--|-----------0--0------------|
--0-----------------------|----------------2----------|
--------0-----0-----0-----|--------0-----0------0-----|
-----2-----2-----2-----2--|-----2-----2------2-----2--|
--3-----------------------|--2------------------------|


  E  E  E  E  E  E  E  E     E  E  E  E  E  E  E  E   
--------------------------|--------------------------|
--------------0--0--1--0--|--------------------------|
-----------0--------------|-----2--------------------|
--------2-----2-----2-----|--------0-----0-----0-----|
-----2-----2-----2-----2--|-----0-----0-----0-----0--|
--0-----------------------|--2-----------------------|


  E  E  E  E  E  S S E  E     E  E  E  E  E  E  E  E   
------------------------0--|--0-----------------------|
-----------0--0----3-------|-----0--0-----------------|
---------------------------|-----------2--------------|
--------0-----0------0-----|--------0-----0-----0-----|
-----2-----2-----2------2--|-----2-----2-----2-----2--|
--3------------------------|--2-----------------------|


  E  E  E  E  E  E  E  E     E  E  E  E  E  E  E  E   
--------------------------|--------------------------|
-----0--0-----0--------0--|--------------------------|
-----------------0--------|--------------------------|
--------2-----2-----2-----|-----4--------------------|
-----2-----2-----2-----2--|-----0-----0-----0-----0--|
--0-----------------------|--2-----2-----2-----2-----|


  E  E  E  E  E  E  E  E     E  E  E  E  E  E  E  E   
--------------------------|--0-----------------------|
--------------0-----3--0--|-----0--0-----------------|
--------------------------|-----------2--------------|
--------0-----0-----0-----|--------0-----0-----0-----|
-----2-----2-----2-----2--|-----2-----2-----2-----2--|
--3-----------------------|--2-----------------------|


  E  E  E  E  E  S S E  E     E  E  E  E  E  E  E  E   
--------------0------------|--------------------------|
-------------------3----0--|--0-----------------------|
-----------0---------------|-----2--------------------|
--------2-----2------2-----|-----4-----4-----4-----4--|
-----2-----2-----2------2--|--5-----5-----5-----5-----|
--0------------------------|--------------------------|


  E  E  E  E  E  E  E  E     E  E  E  E  E  E  E  E   
-----------------------0--|--0-----------------------|
-----------0--0-----3-----|-----------0--0-----------|
--------------------------|-----------------2--------|
--------0-----0-----0-----|--------0-----0-----0-----|
-----2-----2-----2-----2--|-----2-----2-----2-----2--|
--3-----------------------|--2-----------------------|


  E  E  E  E  E  S S E  E     E  E  E  E  E  E  E  E   
---------------------------|--------------------------|
-----0--0--0--3--0-0-------|--------------------------|
-----0--0--0------------2--|--2--------------------0--|
--------2-----2------2-----|-----4-----4-----4--------|
-----2-----2-----2------2--|--5-----5-----5-----5-----|
--0------------------------|--------------------------|


  E  E  E  E  E  E  E  E     E  E  E  E  E  E  E  E   
--------------------3-----|--2-----------------------|
--------------0-----------|--------3--0--------------|
--0-----2-----------------|-----------------------0--|
--------0-----0-----0-----|--------0-----0-----0-----|
-----2-----2-----2-----2--|-----2-----2-----2-----2--|
--3-----------------------|--2-----------------------|


  E  S S E  E  E  E  E  E     E  E  E  E  E  E  E  E   
--0------------------------|--0-----------------------|
-------3----0--------------|--------3-----------------|
------------0-----------0--|-----2-----2-----------0--|
---------2-----2-----2-----|--0-----------0-----0-----|
-----2------2-----2-----2--|-----------------0--------|
--0------------------------|--------------------------|


  E  E  E  E  E  E  E  E     E  E  E  E  E  E  E  E   
--------------------------|-----------------------0--|
--------------0-----0-----|--------3--0--------------|
--0-----2-----------------|--2-----------------------|
--------0-----0-----0-----|--------0-----0-----0-----|
-----2-----2-----2-----2--|-----2-----2-----2-----2--|
--3-----------------------|--2-----------------------|


                              ^                        
  E  S S E  E  E  E  E  E     Q    E    Q    E  E  E   
--0---------0--------------|--------------------------|
-------3----------------3--|--3----3------------------|
---------------------------|--2-------4g2----2--0--0--|
---------2-----2-----2-----|--0-----------------------|
-----2------2-----2-----2--|--------------------------|
--0------------------------|--------------------------|


                             ^                        
  E  E  E  E  E  E  E  E     E  E  E  E  E  E  E  E   
--3--------3--------------|--3--------3--------3-----|
-----------------3-----3--|--3--------------3-----3--|
--------------------0-----|--0-----------------------|
-----0-----0-----0-----0--|-----0-----0-----0-----0--|
--2-----2-----2-----2-----|--2-----2-----2-----2-----|
--3-----3-----3-----3-----|--3-----3-----3-----3-----|


  ^                                                    
  E  E  E  E  E  E  E  E     E  E  E  E  S S E  E  E   
--3--------------------0--|--0------------------------|
--3--------0--0-----3-----|-----------0--0------------|
--0-----0-----0-----0-----|----------------2----------|
-----0-----0-----0-----0--|--------0-----0------0-----|
--2-----------------------|-----2-----2------2-----2--|
--3-----3-----3-----3-----|--2------------------------|


  E  E  E  E  E  E  E  E     E  E  E  E  E  E  E  E   
--------------------------|--------------------------|
--------------0--0--1--0--|--------------------------|
-----------0--------------|--2-----------------------|
--------2-----2-----2-----|--------0-----0-----0-----|
-----2-----2-----2-----2--|-----0-----0-----0-----0--|
--0-----------------------|--2-----------------------|


  E  E  E  E  E  S S E  E     E  E  E  E  E  E  E  E   
---------------------------|--0-----------------------|
-----------0--0----3----0--|-----0--0-----------------|
---------------------------|-----------2--------------|
--------0-----0------0-----|--------0-----0-----0-----|
-----2-----2-----2------2--|-----2-----2-----2-----2--|
--3------------------------|--2-----------------------|


  E  E  E  E  E  E  E  E     S S E  E  E  E  E  E  E   
--------------------------|---------------------------|
-----0-----0--0-----0-----|--0------------------------|
-----0-----0-----2-----2--|----2-------------0-----0--|
--------2-----2-----2-----|---------0-----0-----0-----|
-----2-----2-----2-----2--|------0-----0--------------|
--0-----------------------|--2---------------3--2--3--|


  E  E  E  E  E  E  E  E     E  E  E  E  S S E  E  E   
-----------3--3-----------|--0------------------------|
--------------------3--3--|-----------0--0------------|
--------------------------|----------------2----------|
--------0-----0-----0-----|--------0-----0------0-----|
-----2-----2-----2-----2--|-----2-----2------2-----2--|
--3-----------------------|--2------------------------|


  E  E  E  E  E  S S E  E     E  E  E  E  E  E  E  E   
--------------0------------|--------------------------|
-----------------3-3-------|--------------------------|
--------0---------------0--|-----2--------------------|
--------2-----2------2-----|-----4-----4-----4-----4--|
-----2-----2-----2------2--|--5-----5-----5-----5-----|
--0------------------------|--------------------------|


  E  E  E  E  E  E  E  E     E  E  E  E  E  E  E  E   
--------------------------|--------------------------|
-----------0--0-----3--0--|--0-----------------------|
--------------------------|-----------2--2-----------|
--------0-----0-----0-----|--------0-----0-----0-----|
-----2-----2-----2-----2--|-----2-----2-----2-----2--|
--3-----------------------|--2-----------------------|


  E  E  E  E  E  S S S S E     E  E  E  E  E  E  E  E   
----------------------------|--------------------------|
--------0--0--3----0-0------|--------------------------|
-----------------------2-2--|--L--------------------0--|
--------2-----2------2------|-----4-----4-----4--------|
-----2-----2-----2-------2--|--5-----5-----5-----5-----|
--0-------------------------|--------------------------|


  E  E  E  E  E  E  E  E     E  E  E  E  E  E  E  E   
--------------------3-----|--2-----------------------|
--------------0-----------|--------3--0--------------|
--0-----2-----------------|-----------------------0--|
--------0-----0-----0-----|--------0-----0-----0-----|
-----2-----2-----2-----2--|-----2-----2-----2-----2--|
--3-----------------------|--2-----------------------|


  E  S S E  E  E  E  E  E     E  E  E  E  E  E  E  E   
--0------------------------|--------------------------|
-------3----0-----------0--|--1-----0-----------------|
---------------------------|-----------2-----------0--|
---------2-----2-----2-----|--------0-----0-----0-----|
-----2------2-----2-----2--|-----0-----0-----0-----0--|
--0------------------------|--2-----------------------|


  E  E  E  E  E  E  E  E     E  S S E  E  E  E  E  E   
--------------------3-----|--2----0----2-----------0--|
--------------0-----------|---------------------------|
--0-----2-----------------|---------------------------|
--------0-----0-----0-----|---------0-----0-----0-----|
-----2-----2-----2-----2--|-----2------2-----2-----2--|
--3-----------------------|--2------------------------|


  E  S S E  E  E  E  E  E     E  S S E  E  E  E  E  E   
--0---------0--------------|-------0-------------------|
-------3----------------3--|--3---------3-----3--3-----|
---------------------------|-----2---2-----2--------2--|
---------2-----2-----2-----|--0------------------------|
-----2------2-----2-----2--|---------------------------|
--0------------------------|---------------------------|


  Q    Q    E  E  E  E     Q    E  E  E  E  E  E     Q    Q    E  E  E  E   
--3----0----0-----0-----|--0----0-----0--2--0--2--|--3----3----3--2--3--2--|
--1----1-------3-----3--|--1----------------------|------------------------|
--0----0----0-----0-----|----------0--------0-----|--0----0----0-----------|
------------2--------4--|--2----2--0--------------|------------------0-----|
--3----3----------------|-------------------3-----|--2----2----2-----0-----|
------------------------|-------------------------|------------------------|


  Q    Q    E  E  E  E     Q    Q    E  E  E  E     E  E  E  E  E  E  E  E   
--2----2----2--0--2--0--|--3----3----3--2--3--2--|--3-----3-----3--7-----7--|
------------------------|------------------1-----|--------------------8-----|
------------------------|--0----0----0-----0-----|--0-----------------------|
--0----0----0-----0-----|--2----2----2-----------|-----4--2--2--------0-----|
------------------------|--3----3----------------|--------------------------|
--2----2----2-----2-----|------------------------|--------------------------|


   Q     Q     E  E   E  E     Q    Q    E  E  E  E     Q    Q    E  E  E  E   
--10----10----10--7--10--7--|--5----5----5--3--5--3--|--3----3----3--2--3--5--|
----------------------------|------------------------|------------------------|
---0-----0-----0------------|------------------------|--0----0----0-----0-----|
----------------------0-----|--0----0----0-----0-----|--2----2----2--------4--|
----------------------0-----|------------------------|--3----3----------------|
---7-----7-----7------------|--2----2----2-----2-----|------------------------|


  Q    E  E  E  E  E  E     Q    Q    E  E  E  E     Q    Q    E  E  E  E   
--3----3-----3--2--3--2--|--3----3----3--7-----7--|--2----2----2--3--2--3--|
--1----------------------|------------------8-----|------------------------|
-------------------0-----|--0----0----0-----------|------------------------|
--2----2--0--------2-----|------------------0-----|--0----0----0-----0-----|
-------------------3-----|--2----2----2-----0-----|------------------------|
-------------------------|------------------------|--2----2----2-----2-----|


  Q    Q    E  E  E  E     E  E  E  E  E  E  E  E     Q    E  E  E  E  E  E   
--3----3----3--7-----7--|--3-----3--2--3--5--3--2--|--3----3-----3-----3--2--|
------------------8-----|--------------------------|----------3-----3--------|
--0----0----0-----0-----|--0-----------------0-----|--0----0-----0-----------|
--2----2----------------|-----4--2--2--------0-----|-------------------0-----|
--3----3----------------|--------------------------|--2----2-----2-----0-----|
------------------------|--------------------------|-------------------------|


                                                     ^                    
  Q    Q    E  E  E  E     Q    E  E  E  E  E  E     Q    Q    Q    Q     
--2----5----5-----5-----|--L----------------------|-----------------3----|
------------------------|-------------------------|------------0---------|
---------------0-----0--|----------------------0--|--0----2--------------|
--0----0----0-----0-----|--0----0-----0-----0-----|--0-------------------|
------------------------|----------0-----0-----0--|--2-------------------|
--2----2----2-----------|--2----2-----2-----2-----|--3-------------------|


  ^                      ^                      ^                    
  Q    E  H        E     E.  E.  H        E     Q    E  H        E   
--2-------------------|--0-------------------|----------------------|
-------3--0-----------|--0---3---0--------0--|--1----0--------------|
-------------------0--|----------------------|--2-------2--------0--|
--0-------------------|--2-------------------|--0-------------------|
--2-------------------|--2-------------------|----------------------|
--2-------------------|--0-------------------|----------------------|


  ^                      ^                      ^                    
  Q    Q    Q    Q       Q    E  H        E     E.  E.  H        E   
----------------------|----------------------|----------------------|
------------0----0----|--0----3--0--------0--|--0-------0--------1--|
--0----2--------------|----------------------|--0---2---------------|
--0-------------------|--0-------------------|--2-------------------|
--2-------------------|--2-------------------|--2-------------------|
--3-------------------|--2-------------------|--0-------------------|


  Q    E  E  E  E  E  E     E  E  E  E  E  E  E  E     E  E  E  E  E  E  E  E   
-------------------------|--------------------3-----|--2-----------------------|
-------3--3--------------|--------------0-----------|--------3--0--------------|
--2----2--------2-----0--|--0-----2-----------------|-----------------------0--|
--0----0-----0-----0-----|--------0-----0-----0-----|--------0-----0-----0-----|
-------------------------|-----2-----2-----2-----2--|-----2-----2-----2-----2--|
-------------------------|--3-----------------------|--2-----------------------|


  E  E  E  E  E  E  E  E     E  E  E  S S E  E  E  E   
--0--------------------0--|--0--------0---------------|
--0-----3--3--------------|--------3----3-------------|
--------------------------|------------------------0--|
--------2-----2-----2-----|--------2------2-----2-----|
-----2-----2-----2-----2--|-----2-----2------2-----2--|
--0-----------------------|--0------------------------|


  E  E  E  E  E  E  E  E     E  E  E  E  E  E  E  E   
--------------------3-----|--2-----0--2-----------0--|
--------------0-----------|--------------------------|
--0-----2-----------------|--------------------------|
--------0-----0-----0-----|--------0-----0-----0-----|
-----2-----2-----2-----2--|-----2-----2-----2-----2--|
--3-----------------------|--2-----------------------|


                                                          ^                   
  E  S S E  E  E  E  E  E     E  S S E  E  E  E  E  E     H.           E  E   
--0---------0--------------|---------------------------|---------------------|
-------3----------------3--|--3----3----3--------3-----|--0------------------|
---------------------------|-----2---2-----2--------2--|--0---------------0--|
---------2-----2-----2-----|--0---------------0--------|--0------------------|
-----2------2-----2-----2--|---------------------------|--2------------------|
--0------------------------|---------------------------|--3------------3-----|


                                                ^                  
  H.           E  E     E  E  H        E  E     W                  
---------------------|--------------------3--|--7----------------||
--L------------------|-----------------------|--0----------------||
------------------0--|--------0--------0-----|--0----------------||
---------------------|-----0-----------------|--0----------------||
---------------------|-----------------------|-------------------||
--3------------3-----|--3--------------------|--3----------------||




Duration Legend
---------------
W - whole
H - half
Q - quarter
E - 8th
S - 16th
T - 32nd
X - 64th
. - note dotted
|-n-|  - n-tuplets


Tablature Legend
----------------
L - tied note
x - dead note
g - grace note
(n) - ghost note
> - accentuded note
NH - natural harmonic
AH - artificial harmonic
TH - tapped harmonic
SH - semi harmonic
PH - pitch harmonic
h - hammer on
p - pull off
b - bend
S - shift slide
s - legato slide
/ -  slide into from below or out of upwards
\ -  slide into from above or out of downwards
~ - vibrato
W - wide vibrato
tr - trill
TP - tremolo picking
T - tapping
S - slap
P - pop
< - fade in
^ - brush up
v - brush down
Login or Register to remove this ad.

2 comments on Off to Sleep

i´ve never heard this song,

5

i´ve never heard this song, but this tab is awesome

great Job dude :D

I Love this

5

Great job on this! This song was awesome in the game, and i can't wait to hear some awesome covers thanks to you!