Login or Register to remove this ad.

Leave Your Castle (Child of Light) Guitar Tab

Submitted: Oct 26, 2016 by Kabukibear

5
Average: 5 (8 votes)
Download | Listen
Game: Child of Light
Composer(s): Cœur de pirate
Style: Arrangement, Fingerstyle

AutoScroll: Slow | Medium | Fast
Leave Your Castle
~Child of Light~
By: Cœur de pirate
Arranged by: Justin Lincoln

Drop D


E |----------------------------|----------------------------|
B |--------0-----0-----0-------|--------0-----0-----0-------|
G |-----0-----0-----0-----0----|-----0-----0-----0-----0----|
D |--2-------------------------|--2-------------------------|
A |----------------------------|----------------------------|
D |----------------------------|----------------------------|

                                           >
----------------------------|----------------------------||
--------0-----0-----0-------|--------0-----0-------------||
-----0-----0-----0-----0----|-----0-----0-----0-----0----||
--2-------------------------|--2-------------------------||
----------------------------|--------------------2-------||
----------------------------|----------------------------||


-3-------------------------|--------------2--------3----|
-------0-----0-----0-------|--------0-----------0-------|
o---0-----0-----0-----0----|-----0-----0-----0----------|
o--------------------------|----------------------------|
---------------------------|----------------------------|
-2-------------------------|--2-------------------------|


--2-------------------------|--0-----------2-----3-------|
--------0-----0-----0-------|--------0-------------------|
-----0-----0-----0-----0----|-----0-----0-----0-----0----|
----------------------------|----------------------------|
----------------------------|----------------------------|
--2-------------------------|--2-------------------------|


----------------------------|--------------3-----2-------|
--1-------------------------|----------------------------|
--------2-----2-----2-------|--------2-------------------|
-----2-----2-----2-----2----|-----2-----2-----2-----2----|
--0-------------------------|--0-------------------------|
----------------------------|----------------------------|


----------------------------|--------------3-----2-------|
--1-------------------------|----------------------------|
--------2-----2-----2-------|--------2-------------------|
-----2-----2-----2-----2----|-----2-----2-----2-----2----|
--0-------------------------|--0-------------------------|
----------------------------|----------------------------|


-----------------------0----|-----------------------0----|
--3-------------------------|--3-------------------------|
--------2-----2-----2-------|--------2-----2-----2-------|
-----4-----4-----4----------|-----4-----4-----4----------|
----------------------------|----------------------------|
--0-------------------------|--0-------------------------|


----------------------------|----------------------------|
--3-------------------------|----------------------------|
--------2-----2-----2-------|--5-----4-----5-----4-------|
-----4-----4-----4-----4----|-----4-----4-----4-----4----|
----------------------------|----------------------------|
--0-------------------------|--0-------------------------|


----------------------------|----------------------------|
--0-------------------------|----------------------------|
--------0-----0-----0-------|--------0-----2-----0-------|
-----0-----0-----0-----0----|-----0-----0-----0-----0----|
----------------------------|----------------------------|
--5-------------------------|--5-------------------------|


----------------------------|----------------------------|
----------------------------|----------------------------|
----------------------------|--------------4-------------|
--4-----4-----4-----4-------|--5-----5-----------4-------|
-----6-----6-----6-----6----|-----6-----6-----6-----6----|
--4-------------------------|--4-------------------------|


--3-------------------------|--------------2--------3----|
--0-----0-----0-----0-------|--------0-----------0-------|
--0--0-----0-----0-----0----|-----0-----0-----0----------|
----------------------------|----------------------------|
----------------------------|----------------------------|
--2-------------------------|--2-------------------------|


--2-------------------------|--0-----------2-----3-------|
--------0-----0-----0-------|--------0-------------------|
-----0-----0-----0-----0----|-----0-----0-----0-----0----|
----------------------------|----------------------------|
----------------------------|----------------------------|
--2-------------------------|--2-------------------------|


----------------------------|--------------5-----3-------|
--1-------------------------|----------------------------|
--------2-----2-----2-------|--------2-------------------|
-----2-----2-----2-----2----|-----2-----2-----2-----2----|
--0-------------------------|--0-------------------------|
----------------------------|----------------------------|


----------------------------|--------------------0-------|
--1-------------------------|--------------3-------------|
--------2-----2-----2-------|--------2-------------------|
-----2-----2-----2-----2----|-----2-----2-----2-----2----|
--0-------------------------|--0-------------------------|
----------------------------|----------------------------|


----------------------------|----------------------------|
--3-------------------------|--1-----------0-------------|
--------2-----2-----2-------|--------2-----------2-------|
-----4-----4-----4-----4----|-----4-----4-----4-----4----|
----------------------------|----------------------------|
--0-------------------------|--0-------------------------|


----------------------------|----------------------------|
--3-------------------------|--1-----------0-----1-------|
--------2-----2-----2-------|--------2-------------------|
-----4-----4-----4-----4----|-----4-----4-----4-----4----|
----------------------------|----------------------------|
--0-------------------------|--0-------------------------|


----------------------------|----------------------------|
--0-------------------------|----------------------------|
--------0-----0-----0-------|--------0-----2-----0-------|
-----0-----0-----0-----0----|-----0-----0-----0-----0----|
----------------------------|----------------------------|
--5-------------------------|--5-------------------------|


----------------------------|----------------------------|
----------------------------|----------------------------|
----------------------------|--------------4-------------|
--4-----4-----4-----4-------|--------4-----------4-------|
-----6-----6-----6-----6----|-----6-----6-----6-----6----|
--4-------------------------|--4-------------------------|


--0-------------------------|--2-----------3-------------|
--------0-----0-----0-------|--------0-----------0-------|
-----0-----0-----0-----0----|-----0-----0-----0-----0----|
----------------------------|----------------------------|
----------------------------|----------------------------|
--2-------------------------|--2-------------------------|


--8-------------------------|--7-----------5-------------|
--------5-----5-----5-------|--------5-----------5-------|
-----5-----5-----5-----5----|-----5-----5-----5-----5----|
----------------------------|----------------------------|
--0-------------------------|--0-------------------------|
----------------------------|----------------------------|


--2-------------------------|--3-----------5-------------|
--------3-----3-----3-------|--------3-----------3-------|
-----2-----2-----2-----2----|-----2-----2-----2-----2----|
----------------------------|----------------------------|
----------------------------|----------------------------|
--0-------------------------|--0-------------------------|


--7-------------------------|--------------5-----3-------|
--------0-----0-----0-------|--------0-------------------|
-----0-----0-----0-----0----|-----0-----0-----0-----0----|
----------------------------|----------------------------|
----------------------------|----------------------------|
--5-------------------------|--5-------------------------|


--0-------------------------|--2-----------3-------------|
--------0-----0-----0-------|--------0-----------0-------|
-----0-----0-----0-----0----|-----0-----0-----0-----0----|
----------------------------|----------------------------|
----------------------------|----------------------------|
--2-------------------------|--2-------------------------|


--8-------------------------|--7-----------5-------------|
--------5-----5-----5-------|--------5-----------5-------|
-----5-----5-----5-----5----|-----5-----5-----5-----5----|
----------------------------|----------------------------|
--0-------------------------|--0-------------------------|
----------------------------|----------------------------|


--2-------------------------|--------------0-----2-------|
--------3-----3-----3-------|--------3-------------------|
-----2-----2-----2-----2----|-----2-----2-----2-----2----|
----------------------------|----------------------------|
----------------------------|----------------------------|
--0-------------------------|--0-------------------------|


----------------------------|---------------------------|||
--3-------------------------|--1-----------0------------|||
--------2-----2-----2-------|--------2-----------2-----o|||
-----4-----4-----4-----4----|-----4-----4-----4-----4--o|||
----------------------------|---------------------------|||
--0-------------------------|--0------------------------|||


-0-------------------------|--2-----------3-------------|
-------0-----0-----0-------|--------0-----------0-------|
o---0-----0-----0-----0----|-----0-----0-----0-----0----|
o--------------------------|----------------------------|
---------------------------|----------------------------|
-2-------------------------|--2-------------------------|


--0-------------------------|--2-----------3-------------|
--------1-----1-----1-------|--------1-----------1-------|
-----0-----0-----0-----0----|-----0-----0-----0-----0----|
----------------------------|----------------------------|
--3-------------------------|--3-------------------------|
----------------------------|----------------------------|


--5-------------------------|--3-----------2-------------|
--------5-----5-----5-------|--------5-----------5-------|
-----5-----5-----5-----5----|-----5-----5-----5-----5----|
----------------------------|----------------------------|
--0-------------------------|--0-------------------------|
----------------------------|----------------------------|


--5-------------------------|--3-----------2------------|||
--------3-----3-----3-------|--------3-----------3------|||
-----2-----2-----2-----2----|-----2-----2-----2-----2--o|||
----------------------------|--------------------------o|||
----------------------------|---------------------------|||
--0-------------------------|--0------------------------|||


-0-------------------------|--2-----------3-------------|
-------0-----0-----0-------|--------0-------------------|
o---0-----0-----0-----0----|-----0-----0-----0-----0----|
o--------------------------|----------------------------|
---------------------------|----------------------------|
-2-------------------------|--2-----------------2-------|


--0-------------------------|--2-----------3-------------|
--------1-----1-----1-------|--------1-------------------|
-----0-----0-----0-----0----|-----0-----0-----0-----0----|
----------------------------|----------------------------|
--3-------------------------|--3-----------------2-------|
----------------------------|----------------------------|


--5-------------------------|--3-----------2-------------|
--------5-----5-----5-------|--------5-------------------|
-----5-----5-----5-----5----|-----5-----5-----5-----5----|
----------------------------|----------------------------|
--0-------------------------|--0-----------------0-------|
----------------------------|----------------------------|


--5-------------------------|--3-----------2------------||
--------3-----3-----3-------|--------3------------------||
-----2-----2-----2-----2----|-----2-----2-----2-----2--o||
----------------------------|--------------------------o||
----------------------------|---------------------------||
--0-------------------------|--0-----------------0------||

Rit...
--0-------------------------|----------------------------|
--------0-----0-----0-------|----------------------------|
-----0-----0-----0-----0----|--------0-----0-----0-------|
----------------------------|-----2-----2-----2-----2----|
----------------------------|----------------------------|
--2-------------------------|--2-------------------------|


----------------------------|-------||
----------------------------|-------||
----------------------------|-------||
--------2-----2-----2-------|-------||
-----2-----2-----2-----2----|-------||
--2-------------------------|--2----||

Login or Register to remove this ad.

3 comments on Leave Your Castle

Great tab from a great game

5

Great tab from a great game with a great soundtrack :<>

Legend is back

5

Oh god, kabukibear is back. <3 <3 <3

Legend is back

5

Oh god, kabukibear is back. <3 <3 <3