Ads

Aurora's Theme (Child of Light) Guitar Tab

Submitted: Jun 04, 2014 by Basisti94 (Last updated: Jul 16, 2014)

5
Average: 5 (3 votes)
Download | Listen
Game: Child of Light
Composer(s): Cœur de pirate
Style: Arrangement, Fingerstyle, Natural harmonics

AutoScroll: Slow | Medium | Fast
    	 	Aurora's Theme
                                
Child of Light
C?ur de pirate
Guitar Arrangement by Basisti94 (Miro Laaksonen)
4.6.2014



Tempo ~ 120
                            ^                                           
     Q    Q    Q    Q       Q    Q    Q    Q       Q    Q    Q    Q     
E||----------------------|--7-------------------|--L-------------------|
B||----------------------|--8-------------------|--L-------------------|
G||----------------------|--9-------------------|--L-------------------|
D||----------------------|----------------------|----------------------|
A||----------------------|----------------------|----------------------|
E||--0----0----0----0----|-------0----0----0----|--0----0----0----0----|


  ^                                                                  
  Q    Q    Q    Q       Q    Q    Q    Q       Q    Q    Q    Q     
--7---------7---------|--7----7----7----7----|--3--------------5----|
--8---------8---------|--8----8----8----8----|-------0----0----0----|
--9---------9---------|--9----9----9----9----|-------0----0----0----|
----------------------|----------------------|-------2----2----2----|
-------7---------7----|----------------------|----------------------|
----------------------|----------------------|--0-------------------|


  Q    Q    Q    Q       Q    Q    Q    Q       Q    Q    Q    Q     
--7---------5----3----|--7-------------------|----------------------|
--0----0----0----0----|-------3----3----3----|--3----3----3----3----|
--0----0----0----0----|-------4----4----4----|--4----4----4----4----|
----------------------|-------5----5----5----|--5----5----5----5----|
----------------------|----------------------|----------------------|
--0-------------------|--3-------------------|----------------------|


  Q    Q    Q    Q       Q    Q    Q    Q       Q    Q    Q    Q     
--3--------------5----|--7---------5----3----|--7-------------------|
-------0----0----0----|--0----0----0----0----|-------3----3----3----|
-------0----0----0----|--0----0----0----0----|-------4----4----4----|
-------2----2---------|----------------------|-------5----5----5----|
----------------------|----------------------|----------------------|
--0-------------------|--0-------------------|--3-------------------|


  Q    Q    Q    Q       Q    Q    Q    Q       Q    Q    Q    Q     
------------7---------|--5--------------3----|--2---------3----5----|
--3----3----3----3----|----------------------|-------3----3----3----|
--4----4----4----4----|--2----2----2----2----|-------2----2----2----|
--5----5----5----5----|--2----2----2----2----|--0-------------------|
----------------------|--0-------------------|----------------------|
----------------------|----------------------|----------------------|


  E  E  Q    Q    Q       Q    Q    Q    Q       Q    Q    Q    Q     
--3--2--0--------------|----------------------|--8--------------7----|
--------0----0----0----|--0----0----0----0----|-------5----5----5----|
--------0----0----0----|--0----0----0----0----|-------5----5----5----|
--------2----2----2----|--2----2----2---------|----------------------|
-----------------------|----------------------|--0-------------------|
--0--------------------|----------------------|----------------------|


  Q    Q    Q    Q       E  E  Q    Q    Q       Q    Q    Q    Q     
--2---------3----5----|--3--2--0--------------|----------------------|
-------3----3----3----|--------0----0----0----|--0----0----0----0----|
-------2----2----2----|--------0----0----0----|--0----0----0----0----|
--0-------------------|--------2----2----2----|--2----2----2----2----|
----------------------|-----------------------|----------------------|
----------------------|--0--------------------|----------------------|


  Q    E  E  E  E  E  E     E  E  E  E  E  E  E  E     Q    E  E  E  E  E  E   
--3----------------5-----|--7-----------5-----3-----|--7----------------------|
-------0-----0-----------|--------0-----------------|-------3-----3-----3-----|
-------0--0-----0-----0--|-----0-----0-----0-----0--|-------4--4-----4-----4--|
-------2-----------------|--------------------------|-------5-----------------|
-------------------------|--------------------------|-------------------------|
--0----------------------|--0-----------------------|--3----------------------|


  ^                                                                             
  E  E  E  E  E  E  E  E     Q    E  E  E  E  E  E     E  E  E  E  E  E  E  E   
--------------------------|--3----------------5-----|--7-----------5-----3-----|
--3-----3-----------3-----|-------0-----0-----------|--------0-----------------|
--4--4-----4-----4-----4--|-------0--0-----0-----0--|-----0-----0-----0-----0--|
--5-----------5-----------|-------2-----------------|--------------------------|
--------------------------|-------------------------|--------------------------|
--------------------------|--0----------------------|--0-----------------------|


                            ^                                                  
  Q    E  E  E  E  E  E     E  E  E  E  E  E  E  E     Q    E  E  E  E  E  E   
--7----------------------|--------------7-----------|--5----------------3-----|
-------3-----3-----3-----|--3-----3-----------3-----|-------------------------|
-------4--4-----4-----4--|--4--4-----4-----4-----4--|-------2-----2-----------|
-------5-----------------|--5-----------5-----------|----------2-----2-----2--|
-------------------------|--------------------------|--0----------------------|
--3----------------------|--------------------------|-------------------------|


  Q    E  E  E  E  E  E     E  E  E  E  E  E  E  E     E  E  E  E  E  E  E  E   
--2----------3-----5-----|--3--2--0-----------------|--------------------------|
----------3--------------|--------------0-----0-----|--------0-----0-----0-----|
-------2--------2-----2--|-----------0-----0-----0--|-----0-----0-----0-----0--|
--0----------------------|--------2-----------------|--------------------------|
-------------------------|--------------------------|--------------------------|
-------------------------|--0-----------------------|--0-----------------------|


  Q    E  E  E  E  E  E     Q    E  E  E  E  E  E     E  E  E  E  E  E  E  E   
--8----------------7-----|--2----------3-----5-----|--3--2--0-----------------|
-------5-----5-----------|----------3--------------|--------------0-----0-----|
----------5-----5-----5--|-------2--------2-----2--|-----------0-----0-----0--|
-------------------------|--0----------------------|--------2-----------------|
--0----------------------|-------------------------|--------------------------|
-------------------------|-------------------------|--0-----------------------|


                    ^        ^    ^    ^    ^       ^    ^    ^    ^     
  E  E  E  E  E  E  E  E     Q    Q    Q    Q       Q    Q    Q    Q     
--------------------0-----|--0----0----0----0----|--2----2----2----2----|
-----------0--------0-----|--1----1----1----1----|--3----3----3----3----|
--------0-----0-----0-----|--0----0----0----0----|--2----2----2----2----|
-----2-----------2--2-----|--2----2----2----2----|--0----0----0----0----|
--------------------------|--3----3----3----3----|----------------------|
--0--------------------0--|----------------------|----------------------|


  ^                      ^                       ^    ^    ^    ^     
  Q    Q    Q    Q       Q    Q    Q    E  E     Q    Q    Q    Q     
----------------------|-----------------------|--0----0----0----0----|
-------0--------------|-------0---------------|--1----1----1----1----|
------------0---------|------------0----------|--0----0----0----0----|
--2----2----2----4----|--2----2----2----4-----|--2----2----2----2----|
--2----2----2----2----|--2----2----2----2-----|--3----3----3----3----|
--0-------------------|--3---------0-------0--|----------------------|


  ^    ^    ^    ^       ^                      ^                    
  Q    Q    Q    Q       Q    Q    Q    Q       Q    Q    Q    Q     
--2----2----2----2----|----------------------|----------------------|
--3----3----3----3----|-------0--------------|-------0--------------|
--2----2----2----2----|------------0---------|------------0---------|
--0----0----0----0----|--2----2----2----4----|--2----2----2----4----|
----------------------|--2----2----2----2----|--2----2----0----2----|
----------------------|--0-------------------|--3-------------------|


  ^                      ^                      ^                    
  Q    Q    Q    Q       Q    Q    Q    Q       Q    Q    Q    Q     
----------------------|----------------------|----------------------|
--1---------0---------|------------1---------|--0-------------------|
----------------------|--2---------2---------|------------0---------|
--2----2----2----2----|--0----0----0----0----|--2----2----2----4----|
--3----3----3----3----|----------------------|--2----2----2----2----|
----------------------|----------------------|--0-------------------|


                          ^                                           
  Q    Q    Q    E  E     Q    Q    Q    Q       Q    Q    Q    Q     
-----------------------|----------------------|----------------------|
-------0---------------|----------------------|----------------------|
-----------------0-----|--0-------------------|----------------------|
--2----2----4----2-----|--2----2----2----2----|--4----4----4----4----|
--2----2----0----2-----|--3----3----3----3----|--5----5----5----5----|
--3-----------------0--|----------------------|----------------------|


  ^                                                   ^                        
  Q    Q    E  E  E  E     E  E  E  E  E  E  E  E     E  E  E  E  E  E  E  E   
--0---------------------|--------------------------|--0-----------------------|
--0---------------------|--------------------------|--0-----------------------|
--0---------------------|--------------------------|--0-----------------------|
--2----2----2-----2-----|--2-----2-----2-----2-----|--2-----2-----2-----2-----|
--2----2----2-----2-----|--2-----2-----2-----2-----|--2-----2-----2-----2-----|
--0------------3-----3--|-----3-----3-----3-----3--|-----3-----3-----3-----3--|


                             ^                                           
  E  E  E  E  E  E  E  E     Q    Q    Q    Q       Q    Q    Q    Q     
--------------------------|--3--------------5----|--7---------5----3----|
--------------------------|--0----0----0----0----|--0----0----0----0----|
--------------------------|--0----0----0----0----|--0----0----0----0----|
--2-----2-----2-----2-----|--2-------------------|----------------------|
--2-----2-----2-----2-----|----------------------|----------------------|
-----3-----3-----3-----3--|----------------------|----------------------|


  ^                                             ^                    
  Q    Q    Q    Q       Q    Q    Q    Q       Q    Q    Q    Q     
--7-------------------|----------------------|--3--------------5----|
--0----0----3----3----|--3----3----3----3----|--0----0----0----0----|
--0----0----0----0----|--0----0----0----0----|--0----0----0----0----|
--0-------------------|----------------------|--2-------------------|
----------------------|----------------------|----------------------|
----------------------|----------------------|----------------------|


                         ^                                           
  Q    Q    Q    Q       Q    Q    Q    Q       Q    Q    Q    Q     
--7---------5----3----|--7-------------------|------------7---------|
--0----0----0----0----|--0----3----3----3----|--3----3----3----3----|
--0----0----0----0----|--0----0----0----0----|--0----0----0----0----|
----------------------|--0-------------------|----------------------|
----------------------|----------------------|----------------------|
----------------------|----------------------|----------------------|


  ^                      ^                      ^                     
  Q    Q    Q    Q       Q    Q    Q    Q       E  E  Q    Q    Q     
--5--------------3----|--2---------3----5----|--3--2--0--------------|
----------------------|--3----3----3----3----|--0-----0----0----0----|
--2----2----2----2----|--2----2----2----2----|--0-----0----0----0----|
--2----2----2----2----|--0-------------------|--2--------------------|
----------------------|----------------------|-----------------------|
----------------------|----------------------|-----------------------|


                         ^                      ^                    
  Q    Q    Q    Q       Q    Q    Q    Q       Q    Q    Q    Q     
----------------------|--8--------------7----|--2---------3----5----|
--0----0----0----0----|--5----5----5----5----|--3----3----3----3----|
--0----0----0----0----|--5----5----5----5----|--2----2----2----2----|
----------------------|----------------------|--0-------------------|
----------------------|--0-------------------|----------------------|
----------------------|----------------------|----------------------|


  ^                                                                    
  E  E  Q    Q    Q       Q    Q    Q    Q       Q    E  E  Q    Q     
--3--2--0--------------|----------------------|-----------------------|
--0-----0----0----0----|--0----0----0---------|-----------------------|
--0-----0----0----0----|--0----0----0---------|--0---------------2----|
--2--------------------|-----------------2----|--2----2-----2----2----|
-----------------------|-----------------2----|--2----2-----2----2----|
-----------------------|----------------------|--0-------0--0---------|


                          ^                                             
  Q    E  E  Q    Q       Q    E  E  Q    Q       Q    E  E  Q    Q     
-----------------------|-----------------------|-----------------------|
--0--------------------|--0--------------------|-----------------------|
-------------2----0----|--0--------------------|-----------------------|
--2----2-----2----2----|--0----0-----0---------|-----------------------|
--2----2-----2----2----|-------2-----2----2----|--2----2-----2----2----|
--0-------0--0---------|--3-------3--3---------|--3-------3--3---------|


                                                  ^                     
  Q    E  E  Q    Q       Q    E  E  Q    Q       Q    E  E  Q    Q     
-----------------------|-----------------------|-----------------------|
-----------------------|--0--------------------|--0--------------------|
--0---------------2----|-------------2----0----|--0--------------------|
--2----2-----2----2----|--2----2-----2----2----|--0----0-----0---------|
--2----2-----2----2----|--2----2-----2----2----|-------2-----2----2----|
--0-------0--0---------|--0-------0--0---------|--3-------3--3---------|


  Q    E  E  Q    Q       Q    E  E  Q    Q       Q    E  E  Q    Q     
-----------------------|-----------------------|-----------------------|
-------------0---------|-----------------------|-----------------------|
-----------------------|--2---------------0----|-------------0----2----|
-------------0----0----|--2----2-----2---------|--4---------------4----|
--2----2-----2----2----|--0-------0--0---------|--5----5--5--5----5----|
--3-------3--3---------|------------------3----|-----------------------|


  E  E  E  E  Q    Q       Q    E  E  Q    Q       Q    E  E  Q    Q     
------------------------|-----------------------|-----------------------|
------------------------|-----------------------|--1---------------0----|
------------------------|------------------0----|--2----2-----2----2----|
--5--4--2---------------|-------------4---------|--2----2-----2----2----|
--2-----2-----2----2----|--2----2-----2----2----|--0-------0--0---------|
--0--------0--0---------|--0-------0--0---------|-----------------------|


  Q    E  E  Q    Q       E  E  E  E  Q    Q       Q    E  E  Q    Q     
-----------------------|------------------------|-----------------------|
-----------------------|------------------------|-----------------------|
-------------0----2----|------------------------|-----------------------|
--4---------------4----|--5--4--2----------2----|--2----2-----2----2----|
--5----5--5--5----5----|--2-----2-----2----2----|--2----2-----2----2----|
-----------------------|--0--------0--0---------|--0-------0--0---------|


  Q    E  E  Q    Q       Q    E  E  Q    Q       Q    E  E  Q    Q     
-----------------------|-----------------------|-----------------------|
-----------------------|-----------------------|-------0---------------|
-----------------------|-----------------------|-------------0---------|
--2----2-----2----2----|--4----4-----4----4----|--2----2-----2----4----|
--3----3--3--3----3----|--5----5--5--5----5----|--2----2-----2----2----|
-----------------------|-----------------------|--0-------0--0---------|


  Q    E  E  E  E  E  E     Q    E  E  Q    Q       Q    E  E  Q    Q     
-------------------------|--0----0-----0----0----|--2----2-----2----2----|
-------0-----------------|--1----1-----1----1----|--3----3-----3----3----|
-------------0-----------|--0----0-----0----0----|--2----2-----2----2----|
--2-------2-----2--4--2--|--2----2-----2----2----|--0-------0--0---------|
--2----2-----2-----------|--3-------3--3---------|-----------------------|
--0-------0--0-----------|-----------------------|-----------------------|


  E  E  E  E  E  E  E  E     E  E  E  E  E  E  E  E     Q    E  E  Q    Q     
--------------------------|--------------------------|-----------------------|
--------0-----------------|--------0-----------------|--1----1-----0----0----|
--------------0-----------|--0-----------0-----------|--0----0-----0----0----|
-----2-----2-----2--4--2--|-----2-----2-----2--4--2--|--2----2-----2----2----|
--2-----2-----2-----------|--2-----2-----2-----------|--3-------3--3---------|
--0--------0--0-----------|--0--------0--0-----------|-----------------------|


  Q    E  E  Q    Q       Q    E  E  Q    Q       E  E  E  E  Q    Q     
-----------------------|-----------------------|------------------------|
-------------1----1----|--0----0---------------|------------------------|
--2----2-----2----2----|-------------0---------|-----0-------------0----|
--0----0--0--0----0----|--2----2-----2----4----|--2-----2-----4---------|
-----------------------|--2----2-----2----2----|--2-----2-----2----2----|
-----------------------|--0-------0--0---------|--0--------0--0---------|


  Q    E  E  E  E  E  E     E  E  E  E  E   E  E   E     Q    Q    E  E  E  E   
-------------------------|----------------------------|------------------------|
-------------------------|----------------------------|------------------------|
-------------------------|----------------------------|------------------------|
--2----2-----2-----2-----|--4-----4-----4h--5--4h--5--|--2----2----2-----2-----|
--3-------3--3--3-----3--|--5--5-----5--5----------5--|--2----2----2-----2-----|
-------------------------|----------------------------|--0----0-------3-----3--|


                             ^                                                
  E  E  E  E  E  E  E  E     E   E  E  E  E  E  E  E     Q    Q    Q    Q     
--------------------------|---------------------------|----------------------|
--------------------------|---------------------------|--0----0----0----0----|
--0-----0-----0-----0-----|---------------------------|----------------------|
--2-----2-----2-----2-----|--2------2-----2-----2-----|--2-------------------|
--2-----2-----2-----2-----|--2------2-----2-----2-----|--2----2----2----2----|
-----3-----3-----3-----3--|--0h--3-----3-----3-----3--|--3-------------------|


  ^                                             ^                    
  Q    Q    Q    Q       Q    Q    Q    Q       Q    Q    Q    Q     
----------------------|----------------------|----------------------|
----------------------|----------------------|----------------------|
----------------------|----------------------|----------------------|
--2----2----2----2----|--2----2----2----2----|--2----2----2----2----|
--2----2----2----2----|--2----2----2----2----|--2----2----2----2----|
--0-------------------|----------------------|--0-------------------|


                         ^                      ^                  
  Q    Q    Q    Q       W                      W                  
----------------------|-------------------|--<>12----------------||
----------------------|-------------------|--<>12----------------||
----------------------|-------------------|--<>12----------------||
--2----2----2----2----|--2----------------|----------------------||
--2----2----2----2----|--2----------------|----------------------||
----------------------|--0----------------|----------------------||




Duration Legend
---------------
W - whole
H - half
Q - quarter
E - 8th
S - 16th
T - 32nd
X - 64th
. - note dotted
|-n-|  - n-tuplets


Tablature Legend
----------------
L - tied note
x - dead note
g - grace note
(n) - ghost note
> - accentuded note
NH - natural harmonic
AH - artificial harmonic
TH - tapped harmonic
SH - semi harmonic
PH - pitch harmonic
h - hammer on
p - pull off
b - bend
S - shift slide
s - legato slide
/ -  slide into from below or out of upwards
\ -  slide into from above or out of downwards
~ - vibrato
W - wide vibrato
tr - trill
TP - tremolo picking
T - tapping
S - slap
P - pop
< - fade in
^ - brush up
v - brush down
Login or Register to remove this ad.

1 comment on Aurora's Theme

Clean and simple

5

Very great job at keeping it nice and simple!