Ads

Scrubbing with the Toothbrush (Chibi-Robo) Guitar Tab

Submitted: May 10, 2010 by purplelettuce

4.666665
Average: 4.7 (3 votes)
Download | Listen
Game: Chibi-Robo
Composer(s): Hirofumi Taniguchi
Style: Transcription

AutoScroll: Slow | Medium | Fast
Title:  Scrubbing with the Toothbrush
Game:  Chibi-Robo!
Composer:  Hirofumi Taniguchi
Tabber:  Purplelettuce
Date:  May 07, 2010




e----0---------0-----1----------3------0----------0-----1-------
B----0-------0-------1--------3--------0--------0-------1-------
G---------------------------------------------------------------
D------------------0--------2--------------------------0--------
A-3-------3--------------------------3--------3-----------------
E---------------------------------------------------------------


---------3--------6--------6--------5--------5--------4--------4-
-------3--------6--------6--------5--------5--------4--------4---
-----------------------------------------------------------------
----2--------5----------5--------3--------3--------3--------3----
-----------------------------------------------------------------
-----------------------------------------------------------------


-3-----------3-------6----------6------5----------5------4----------4----3--------2--------1---
-3----------3--------6--------6--------5--------5--------4--------4------3--------2--------1---
-----------------------------------------------------------------------------------------------
-1--------1--------5--------5--------3--------3--------3--------3--------1--------1--------0---
-----------------------------------------------------------------------------------------------
-----------------------------------------------------------------------------------------------

Repeat, and adjust rhythm.
Login or Register to remove this ad.

1 comment on Scrubbing with the Toothbrush

Nice one. Sounds like my last

Nice one. Sounds like my last toothbrush.