Battle 3 (Chaos Seed) Bass Tab

Submitted: Mar 07, 2011 by auriplane

0
Download | Listen
Game: Chaos Seed
Composer(s): Hiroshi Iizuka
Style: Transcription

AutoScroll: Slow | Medium | Fast
                            Chaos Seed - Battle 3 BASS TAB
                               Composed by Hiroshi Iizuka

                        Tabbed by auriplane ([email protected])



        Part A

G |----------------|----------------|----------------|----------------|----------------|
D |8--8--8--8--8-8-|8--8--8--8--8-8-|8--8--8--8--8-8-|8--8--8--8--8-8-|8---------------|
A |--8--8--8--8-8-8|--8--8--8--8-8-8|--8--8--8--8-8-8|--8--8--8--8-8-8|----------------|
E |----------------|----------------|----------------|----------------|----------------|
B |----------------|----------------|----------------|----------------|----------------|

        Part B

G |--3-------------|--3-------------|--3-------------|--3-------------|
D |----123---------|----123---------|----123---------|----123---------|
A |11-1---1-141--0-|11-1---1-141--0-|11-1---1-141--0-|11-1---1-141--0-|
E |------------4---|------------4---|------------4---|------------4---|
B |----------------|----------------|----------------|----------------|


G |--3-------------|--3-------------|--------------1-|--3-------------|
D |----123---------|----123---------|------4-----1---|----123---------|
A |11-1---1-141--0-|11-1---1-141--0-|--4-14----3-----|11-1---1-141--0-|
E |------------4---|------------4---|22-2---4-4-4----|------------4---|
B |----------------|----------------|----------------|----------------|


G |--3-------------|--3-------------|--------------1-|--3-------------|
D |----123---------|----123---------|------4-----1---|----123---------|
A |11-1---1-141--0-|11-1---1-141--0-|--4-14----3-----|11-1---1-1411---|
E |------------4---|------------4---|22-2---4-4-4----|--------------4-|
B |----------------|----------------|----------------|----------------|

        Part C

G |----------------|--3-------------|----------------|----------------|
D |------4---------|----123---------|------4---------|--3-------3-----|
A |--4-14----3----3|11-1---1-141--0-|--4-14----3----3|----013---------|
E |22-2---4-4-4-14-|------------4---|22-2---4-4-4-14-|11-1---1-1-11-4-|
B |------------4---|----------------|------------4---|----------------|


G |--------------1-|--3-------------|----------------|----------------|----------------|
D |------4-----1---|----123---------|------4---------|--3-------3-----|--3-------3-----|
A |--4-14----3-----|11-1---1-141--0-|--4-14----3----3|----013---------|----013---------|
E |22-2---4-4-4----|------------4---|22-2---4-4-4-14-|11-1---1-1-11-4-|11-1---1-1-11-4-|
B |----------------|----------------|------------4---|----------------|----------------|

        Part D

G |----------------|----------------|----------------|----------------|
D |----------------|----------------|----------------|----------------|
A |----------------|----------------|----------------|1---------------|
E |2---------------|1---------------|----------------|--------4-------|
B |----------------|----------------|4---------------|----------------|


G |----------------|----------------|----------------|----------------|----------------|
D |----------------|----------------|----------------|----------------|----------------|
A |----------------|----------------|----------------|1---------------|1-------1-------|
E |2-------4-------|1-------2-------|--------1-------|----------------|----------------|
B |----------------|----------------|4---------------|----------------|----------------|

        Repeat back to Part A.

Login or Register to remove this ad.