Little Goth (Celeste) Guitar Tab

Submitted: Mar 07, 2019 by guitarsvd (Last updated: Mar 13, 2019)

5
Average: 5 (2 votes)
Download | Listen
Game: Celeste
Composer(s): Lena Raine
Style: Arrangement, Artificial harmonics, Fingerstyle, Natural harmonics

Click here for a video example.

AutoScroll: Slow | Medium | Fast
Little Goth                                   


                                                          Cecil Chau (GuitarSVD)
Track 1



     E  E  E  E  E  E  E  E     E  E  E  E  E  E  E   E   
E||--5-----------5--0--7--8--|--L-----------------8--10--|
B||--------0-----------0-----|--------0-----------0------|
G||-----------5-----------5--|-----------5------------5--|
D||-----7-----------7--------|-----7-----------7---------|
A||--0-----------0-----------|--0-----------0------------|
D||--------------------------|---------------------------|


     NH       NH                                             
     E  E     E  E  E  E  E  E     E  E  E  E  E  E  E  S S  
--<>12-----------8--L-----------|-----------------------8-7-|
--------------------------0-----|--------0-----------0------|
-----------<>19--------------5--|-----------5-----------5---|
--------7-----L--------7--------|-----7-----------7---------|
--------------------------------|---------------------------|
-----6--------------6-----------|--6-----------6------------|


  E  E   E  E  E  E  E  E     E  E  E  E  E  E  E   E   
--5------------5-----7--8--|--L-----------------8--10--|
------------------5--0-----|--------0-----------0------|
------------5-----------5--|-----------5------------5--|
-----7h--9--------7--------|-----7-----------7---------|
---------------------------|---------------------------|
--5------------5-----------|--5-----------5------------|


     NH                                                  
     E  E  E  E  E  E  E  E     E  E  E  E  E  E  E  E   
--<>12-----------------------|--------------------7-----|
-----------0-----------0-----|--------0-----------0-----|
--------------5-----------5--|-----------5-----------5--|
--------7-----------7--------|-----7-----------7--------|
-----------------------------|--------------------------|
-----4-----------4-----------|--4-----------4-----------|


  E  E  E  E  E  E  E  E     E  E  E  E  E  E  E   E   
--5-----------5-----7--8--|--L-----------------8--10--|
--------0--------5--0-----|--------0-----------0------|
-----------5-----------5--|-----------5------------5--|
-----7-----------7--------|-----7-----------7---------|
--8-----------8-----------|--8-----------8------------|
--------------------------|---------------------------|


   E  E   E  E  E  E  E  E     E  E  E  E   Q    Q     
--11-----10--8--L-----------|--------------10----8----|
----------0-----------0-----|--------0-----------0----|
-------------5-----------5--|-----------5-------------|
------7------------7--------|-----7-------------------|
---6------------6-----------|--6------------6---------|
----------------------------|-------------------------|


  E  E  E  E  E  E  E  E     E  E  E  E  E  E  E   E   
--7-----------------------|--------------------8--10--|
--------0-----------0-----|--------0-----------0------|
-----------5-----------5--|-----------5------------5--|
-----7-----------7--------|-----7-----------7---------|
--7-----------7-----------|--7-----------7------------|
--------------------------|---------------------------|


   E  E  E  E  E  E  E  E     E  E  E  E  E  E  E  E   
--12-----------------------|--0-----------------------|
---------0-----------0-----|--------0--1--------0--1--|
------------5-----------5--|-----2-----------2--------|
------7-----------7--------|--------------------------|
---7-----------7-----------|--------------------------|
---------------------------|--2-----------2-----------|


  E  E  E  E  E  E  E  E     E  E  E  E  E  E  E  E   
--------------------------|--------------------------|
--------0--1--------0--1--|--L-----0--1--------1--3--|
--2--------2--2-----------|--------------------2--5--|
-----2-----------2--------|-----2-----------2--------|
--0-----------0-----------|--0-----------0-----------|
--------------------------|--------------------------|


  E  E  E  E  E  E  E  E     E  E  E  E  E  E  E  E   
--0-----------------5-----|--7-----------8-----------|
--------0-----------0-----|--------0-----------0-----|
-----------5-----------5--|-----------5-----------5--|
-----7-----------7--------|-----7-----------7--------|
--------------------------|--------------------------|
--6-----------6-----------|--6-----------6-----------|


  E  E  E  E  E  E  E  E     E  E  E  E  E  E  E  E   
--0-----------------------|--------------------5-----|
--------0-----------0-----|--0-----0-----------0-----|
-----------5--------7--5--|--------4--5-----------5--|
-----7-----------7--------|-----7--------7--7--------|
--------------------------|--------------------------|
--5-----------5-----------|--5-----------5-----------|


  E  E  E  E  E  E  E  E     E  E  E  E  S S S S S  S  E   
--0-----------------L-----|--0--------5--L-7-L-8-L-10--L--|
--------0--1--------0--3--|--------0-------------0--------|
-----2-----------2-----5--|-----2-----5-------------------|
--------------------------|------------------7--------10--|
--------------------------|-------------------------------|
--4-----------4-----------|--4-----------4----------------|


     NH                                                         
     E  E  E  E  E  E    E    E       E  E  E  E  E    E  Q     
--<>12---------------------------|-----------------------------|
-----------0--1--------<>3--<>1--|--<>0-----0--1-----<>1-------|
--------2-----------2----L-------|-------2-------------2--L----|
---------------------------------|-----------------------------|
---------------------------------|-----------------------------|
-----3-----------3---------------|----3-----------3------------|


                                            |3|  |-3|     
  E  E  E  E  E  E  E  E     E  E  E  E  E  S E  E  S E   
--5-----------------------|--------------4----5-----7----|
--------0--1--------0--1--|--------0--1----------0-------|
-----2-----------2--------|-----2-----------2---------5--|
--------------------------|------------------------------|
--------------------------|------------------------------|
--1-----------1-----------|--1-----------1---------------|


     NH                                                     
     E  E  E  E  E  E  E  E     E  E  E  E    E  E    Q     
--<>12-----------------------|--------------<>1------------|
-----------0--1--------0--1--|--------0--1----------<>3----|
--------2-----------2--------|-----2-------------2----L----|
-----------------------------|-----------------------------|
-----------------------------|-----------------------------|
-----2-----------2-----------|--2-------------2------------|


     NH                                                  
     E  E  E  E  E  E  E  E     E  E  E  E  E  E  E  E   
--<>12-----------------------|--0-----------------------|
-----------0--1--------0--1--|--------0--1--------0--1--|
--------2-----------2--------|-----2-----------1--------|
-----2-----------2-----------|--2-----------2-----------|
-----------------------------|--------------------------|
-----------------------------|--------------------------|


  E  E  E  E  E  E  E  E     E  E  E   E  E  E  E   E   
--5-----------------------|--7---------------8-----10--|
--------0-----------0-----|----------------------------|
-----2-----5-----2-----5--|----------------------------|
--3-----------3-----------|-----7--9--10-----7--9--10--|
--------------------------|--8------------8------------|
--------------------------|----------------------------|


  E  E  E  E  E  E  E  E     E  E  E  E  E   E   E   E   
--5-----------------------|--7--------8--L--10--12------|
--------------------------|--------0-------------0------|
-----2--4--5-----2--4--5--|-----------5-----------------|
--2-----------2-----------|-----7------------7------10--|
--------------------------|--7-----------7--------------|
--------------------------|-----------------------------|


  E  E  E  E  E  E  E  E     E  E  E  E   E  E  E   E   
--5-----------------7-----|--8-----------10------------|
--------0-----------0-----|--------0------------0------|
-----------5-----------5--|-----------5----------------|
-----7-----------7--------|-----7------------7-----10--|
--6-----------6-----------|--6------------6------------|
--------------------------|----------------------------|


                                            |3|  |-3|     
  E  E  E  E  E  E  E  E     E  E  E  E  E  S E  E  S E   
--5-----------------------|--4-----------5----7-----8----|
--------0-----------0-----|--------0-------------0-------|
-----------5-----------5--|-----------5---------------5--|
-----7-----------7--------|-----7-----------7------------|
--7-----------7-----------|--7-----------7---------------|
--------------------------|------------------------------|


    E  E  E  E  E  E    E  E       E  E  E   E    E  E  E   E   
--<>0-----------------<>5-----|--<>7------------<>8------------|
----------0--1----------0-----|----------0--------------0------|
-------2-----------2-------5--|--------------------------------|
----3-----------3-------------|-------7-----10-------7-----10--|
------------------------------|----8--------------8------------|
----3-------------------------|--------------------------------|


     NH                                                          
     E  E  E  E  E  E    E  E       E  E  E   E    E  E  E   E   
--<>12-----------------<>5-----|--<>7------------<>8------------|
-----------0--1----------0--1--|----------0--------------0------|
--------2-----------2----------|--------------------------------|
-----4-----------4-------------|-------7-----10-------7-----10--|
-------------------------------|----9--------------9------------|
-----4-------------------------|--------------------------------|


     NH                                                   
     E  E  E  E  E  E   E  E     E  E  E  E  E  E  E  E   
--<>12-----------------10--8--|--7-----------5-----------|
--------------5------------5--|-----------5-----------5--|
--------5--7--------5---7-----|-----5--7--------5--7-----|
-----------------5------------|--5-----------5-----------|
------------------------------|--------------------------|
-----5------------------------|--------------------------|


       |---|  |----|                                             
    E  S   E  E    S E  E  E  E  E     E  E  E  E   E  E  E  E   
--<>0----<>1-----<>0----------------|--------------10--8--7--5--|
-------1------3------5-----------5--|-----------5------------5--|
----1----------------------5--7-----|-----5--7---------5--7-----|
------------------------6-----------|--6------------6-----------|
------------------------------------|---------------------------|
------------------------------------|---------------------------|


   E  E  E  E  E  E    E  E       E  E  E  E    E  E  E  E   
--12--------0--------<>5--0--|--<>7--------0--<>8--------0--|
------1--3--------1----3-----|-------1--3----------1--3-----|
---------------2-------------|----2-------------2-----------|
-----------------------------|------------------------------|
---0-------------------------|------------------------------|
-----------------------------|------------------------------|


     NH                                                        
     E  E  E  E  E  E    E  E       E  E  E  E    E  E  E  E   
--<>12-----------------<>5-----|--<>7-----------<>8-----------|
--------------5-------------5--|-------------5-------------5--|
--------5--7--------5----7-----|-------5--7----------5--7-----|
-----------------6-------------|----6-------------6-----------|
-------------------------------|------------------------------|
-----6-------------------------|------------------------------|


     NH                                                        
     E  E  E  E  E  E    E  E       E  E  E  E    E  E  E  E   
--<>12-----------------<>5-----|--<>7-----------<>8-----------|
--------------5-------------5--|-------------5-------------5--|
--------5--7--------5----7-----|-------5--7----------5--7-----|
-----------------5-------------|----5-------------5-----------|
-------------------------------|------------------------------|
-----5-------------------------|------------------------------|


     NH                                                        
     E  E  E  E  E  E    E    E       E  E  E  E  E  E  E  E   
--<>12---------------------------|----------------5-----------|
--------------5--------<>3----5--|--<>0--------5-----------5--|
--------5--7--------5----7--<>5--|-------5--7--------5--7-----|
-----------------4---------------|----4-----------4-----------|
---------------------------------|----------------------------|
-----4---------------------------|----------------------------|


    E  E  E  E  E  E    E  E       E  E  E  E    E  E  E  E   
--<>0--------0--------<>5--0--|--<>7--------0--<>5--------0--|
-------1--3--------1----3-----|-------1--3----------1--3-----|
------------------------------|------------------------------|
----------------3-------------|----3-------------3-----------|
------------------------------|------------------------------|
----3-------------------------|------------------------------|


                                     |-3|       |--|         
    E  E  E  E  E  E  E  E     E  E  E  S E  E  S  E  E  E   
--<>5-----------------------|--7--------8---------10--------|
-------0--1--3-----0--1--3--|-----0--1----3-----0-----1--3--|
----------------------------|-------------------------------|
----2-----------2-----------|--2-------------2--------------|
----------------------------|-------------------------------|
----2-----------------------|-------------------------------|


  E  E  E  E  Q    E  E     H        H           W                 
--5----------------------|--------------------|-------------------|
-----0--1--3-------3--1--|--0-----------------|-------------------|
-------------------------|-----------2--------|--1----------------|
--1-----------1----------|--1-----------------|-------------------|
-------------------------|--------------------|-------------------|
--1----------------------|--------------------|--2----------------|


  H        E  E  E  E     H          
-----------------------|--0--------||
--1-----------0--1--3--|-----------||
-----------------------|-----------||
--2--------2-----------|-----------||
-----------------------|-----------||
-----------------------|-----------||




Duration Legend
---------------
W - whole
H - half
Q - quarter
E - 8th
S - 16th
T - 32nd
X - 64th
. - note dotted
|-n-|  - n-tuplets


Tablature Legend
----------------
L - tied note
x - dead note
g - grace note
(n) - ghost note
> - accentuded note
NH - natural harmonic
AH - artificial harmonic
TH - tapped harmonic
SH - semi harmonic
PH - pitch harmonic
h - hammer on
p - pull off
b - bend
br - bendRelease
pb - preBend
pbr - preBendRelease
brb - bendReleaseBend
\n/ - tremolo bar dip
\n - tremolo bar dive
-/n - tremolo bar Release up
/n\ - tremolo bar inverted dip
/n - tremolo bar return
-\n - tremolo bar Release down
S - shift slide
s - legato slide
/ -  slide into from below or out of upwards
\ -  slide into from above or out of downwards
~ - vibrato
W - wide vibrato
tr - trill
TP - tremolo picking
T - tapping
S - slap
P - pop
< - fade in
^ - brush up
v - brush down
Login or Register to remove this ad.