Ads

Seal Chamber (Cave Story) Guitar Tab

Submitted: Mar 02, 2013 by JordanVS

5
Average: 5 (2 votes)
Download | Listen
Game: Cave Story
Composer(s): Daisuke Amaya
Style: Arrangement, Fingerstyle

AutoScroll: Slow | Medium | Fast
Seal Chamber                                        
Cave Story
Daisuke "Pixel" Amaya
JordanVS


*Capo on 3rd fret  
*Drop D Tuning


     E  E  E  E  E  E  E  E     E  E  E  E  E  E  E  E     E  E  E  E  E  E  E  E   
E||-----0--1--0--1--3--1--0--|--5--1--0--3--1--0--1--0--|-----0--1--0--1--3--1--0--|
B||--3-----------------------|--------------------------|--3-----------------------|
G||--------------------------|--------------------------|--------------------------|
D||--------------------------|--0-----------------------|--------------------------|
A||--------------------------|--------------------------|--------------------------|
D||--0-----------------------|--------------------------|--0-----------------------|


  E  E  E  E  E  E  E  E     E  E  E  E  E  E  E  E     E  E  E  E  E  E  E  E   
--5--1--0--3--1--0--1--0--|--------0-----3--1--0--1--|--0--------0-----------0--|
--------------------------|--2--3-----2--------------|-----3--2-----3--2--3-----|
--------------------------|--------------------------|--------------------------|
--0-----------------------|--------------------------|--------------------------|
--------------------------|--4-----------------------|--0-----------------------|
--------------------------|--------------------------|--------------------------|


  E  E  E  E  E  E  E  E     E  E  E  E  E  E  E  E     E  E  E  E  E  E  E  E   
--------0-----3--1--0--1--|--0--------0-----------0--|-----0--1--0--1--3--1--0--|
--2--3-----2--------------|-----3--2-----3--2--3-----|--3-----------------------|
--------------------------|--------------------------|--------------------------|
--------------------------|--------------------------|--------------------------|
--------------------------|--------------------------|--------------------------|
--5-----------------------|--2-----------------------|--0-----------------------|


  E  E  E  E  E  E  E  E     E  E  E  E  E  E  E  E     E  E  E  E  E  E  E  E   
--5--1--0--3--1--0--1--0--|-----0--1--0--1--3--1--0--|--5--1--0--3--1--0--1--0--|
--------------------------|--3-----------------------|--------------------------|
--------------------------|--------------------------|--------------------------|
--0-----------------------|--------------------------|--0-----------------------|
--------------------------|--------------------------|--------------------------|
--------------------------|--0-----------------------|--------------------------|


  E  E  E  E  E  E  E  E     E  E  E  E  E  E  E  E     E  E  E  E  E  E  E  E   
--------0-----3--1--0--1--|--0--------0-----------0--|--------0-----3--1--0--1--|
--2--3-----2--------------|-----3--2-----3--2--3-----|--2--3-----2--------------|
--------------------------|--------------------------|--------------------------|
--------------------------|--------------------------|--------------------------|
--4-----------------------|--0-----------------------|--------------------------|
--------------------------|--------------------------|--2-----------------------|


  E  E  E  E  E  E  E  E     W                  
--0--------0-----------0--|-------------------||
-----3--2-----3--2--3-----|--3----------------||
--------------------------|-------------------||
--------------------------|--0----------------||
--4-----------------------|-------------------||
--------------------------|--0----------------||




Duration Legend
---------------
W - whole
E - 8th
Login or Register to remove this ad.