Ads

Running Hell (Cave Story) Guitar Tab

Submitted: Mar 19, 2010 by surreal

5
Average: 5 (9 votes)
Download | Listen
Game: Cave Story
Composer(s): Daisuke Amaya
Style: Arrangement, Artificial harmonics, Fingerstyle, Natural harmonics

AutoScroll: Slow | Medium | Fast

What's that Quote? You need more than three hit points to beat hell?

     Q    Q    Q    Q       W                   Q    Q    Q    Q     
E||----------------------|--0----------------|----------------------|
B||-----------------1----|--L----------------|-----------------1----|
F||------------0---------|--L----------------|------------2---------|
D||-------2--------------|--L----------------|-------0--------------|
A||--0-------------------|--L----------------|--0-------------------|
D||----------------------|-------------------|----------------------|


  W                   Q    E  E  E  E  E  E     Q    E  E  E  E  E  E   
-------------------|-------------------------|-------------------0-----|
--0----------------|--1----------------------|----------------------1--|
--L----------------|--0----------------------|-------------------------|
--L----------------|--2----------------------|-------------------------|
--L----------------|--0-------0-----0-----0--|--0-------0-----0-----0--|
-------------------|-------0-----0-----0-----|-------0-----0-----0-----|


  Q    E  E  E  E  E  E     Q    E  E  E  E  E  E     Q    E  E  E  E  E  E   
-------------------------|-------------------------|--0----------------------|
--1----------------------|-------------------------|--1----------------------|
--2----------------------|----------------------0--|--0----------------------|
-------------------------|-------------------2-----|--2----------------------|
--0-------0-----0-----0--|--0-------0-----0-----0--|--0-------0-----0-----0--|
-------0-----0-----0-----|-------0-----0-----0-----|-------0-----0-----0-----|


  Q    E  E  E  E  E  E     Q    E  E  E  E  E  E     Q    E  E  E  E  E  E   
-------------------1--3--|--3----------------------|-------------------8--5--|
-------------------------|--5----------------------|-------------------------|
-------------------------|--4----------------------|-------------------------|
-------------------------|--5----------------------|-------------------------|
--0-------0-----0-----0--|--3-------0-----0-----0--|--0-------0-----0-----0--|
-------0-----0-----0-----|-------0-----0-----0-----|-------0-----0-----0-----|


  Q    E  E  E  E  E  E     Q    E  E  E  E  E  E     Q    E  E  E  E  E  E   
--5----------5-----------|--0----------0-----------|--3----------3-----------|
--5----5-----5-----5-----|--0----0-----0-----0-----|--3----3-----3-----3-----|
--6----6-----------6-----|--0----0-----------0-----|--4----4-----------4-----|
--7----------------------|--0----------------------|--5----------------------|
--0-------0-----0-----0--|--0-------0-----0-----0--|--0-------0-----0-----0--|
-------0-----0-----0-----|-------0-----0-----0-----|-------0-----0-----0-----|


   Q     E  E   E  E   E  E      Q     E  E  E  E  E  E   
---8-------------------------|---8s----------------0-----|
---8--------8------8------8--|---8s----------------0-----|
---9-------------------------|---9s----------------0-----|
--10----10-----10-----10-----|--10s----------------0-----|
---0--------0------0------0--|---0--------0-----0-----0--|
---------0------0------0-----|---------0-----0-----0-----|


  Q    E  E  E  E  E   E     Q    E  E  E  E  E   E   
--5----5--5--5-----5S--0--|--0----0--0--0-----0S--3--|
--5----5--5--5-----5------|--0----0--0--0-----0------|
--6----6--6--6-----6------|--0----0--0--0-----0------|
--------------------------|--------------------------|
--0-------0-----0------0--|--0-------0-----0------0--|
-------0-----0-----0------|-------0-----0-----0------|


  Q    E  E  E  E  E   E     Q    E  E  E  E  E   E   
--3----3--3--3-----3S--8--|--8----8--8--8-----8S--5--|
--3----3--3--3-----3------|--8----8--8--8-----8------|
--4----4--4--4-----4------|--9----9--9--9-----9------|
--------------------------|--------------------------|
--0-------0-----0------0--|--0-------0-----0------0--|
-------0-----0-----0------|-------0-----0-----0------|


   E.   E.   E.   E.   Q         E  E  E  E  E  E  E  E   
--10---10---10---10---10----||---------------------------|
--10---10---10---10---10----||---------------------------|
--11---11---11---11---11----||*-----0--------0--------3--|
----------------------------||*--------0--------0--------|
----------------------------||---0--------0--------0-----|
---0----0----0----0----0----||------0--------0--------0--|


  E  E  E  S  S E  E  E  E     E  E  E  E  E  E  E  E   
----------------------------|--------------------------|
----------------------1-----|--------------------------|
--4--0-----3s-4-0--------2--|--4-----------------------|
--------0----------0--------|--3--------------------0--|
--0--------0----------0-----|--1--3--1--3--1--3--4-----|
-----0----------0--------0--|--------------------------|


  E  E  E  E  E  E  E  E     E  E  E  E  E  E  E  E   
--------------------------|--0--------------------4--|
--------0-----------------|--1--6--------6-----------|
-----7-----5-----3-----1--|--0-----9--------9--------|
--------------7-----5-----|--2--------7--------7-----|
--3--------0--------0-----|--0--------0--------0-----|
-----0--------0--------0--|-----0--------0--------0--|


  E  E  E  S  S E  E  E  E      E  E  E  E  E  E  E  E   
--5--------4s-5-------8-----|---------------------------|
-----6----------6--------8--|--10-----------------------|
--------9----------9--------|------7-----7-----7--8--9--|
----------------------------|---------8-----8-----------|
--0-----------0-------0-----|---0--------0--------0-----|
-----0----------0--------0--|------0--------0--------0--|


  E    Q     Q     Q     S   S     E   E   E   E   E   E   E   E   
------------------------11s-12-|--13------13--18--17--------------|
-------------------------------|------15--------------18--15------|
--7S--12----11----10-----------|------------------------------14--|
--5----------------------------|----------------------------------|
--0----------------------------|---0-----------0-------0-------0--|
-------------------------------|-----------0-------0-------0------|


   E   E   E   E   E   E   E   E      Q.      Q.      Q     
--15----------15----------15------|--15------13------12----|
------17--13------13--17------17--|------------------------|
----------------------------------|------------------------|
----------------------------------|-------------------0----|
---0-----------0-------0-------0--|---0--------------------|
-----------0-------0-------0------|-----------0------------|


   E   E   E   E   E   E   E   E      E   E   E   E   E   E   E  E   
--13------13------13------13------|---------------------------------|
------15------15------15------15--|--------------11--10-------------|
----------------------------------|--12------12----------12---------|
----------------------------------|------12------------------12--7--|
---0-----------0-------0-------0--|---0-----------0-------0------0--|
-----------0-------0-------0------|-----------0-------0-------0-----|


  E   E   E  E   E   E  E   E     Q.      Q.      Q     
-------------------------------|-----------------------|
--8----------8----------8------|--8--------------------|
-----11-------------11-----11--|---------12------11----|
---------10-----10-------------|------------------0----|
--0----------0-------0------0--|--0--------------------|
----------0------0------0------|----------0------------|


   E   E   E   E   E   E   E   E        E   E   E   E   E  E   E  E   
-----------------------------------||-----------------------------8--|
-----------------------------------||----------------------8--10-----|
--12------12------12------12------*||--11--12--11------12------------|
------12------12------12------12--*||--------------10----------------|
---0-----------0-------0-------0---||---0-----------0------0------0--|
-----------0-------0-------0-------||-----------0-------0------0-----|


   E  E  E  E  E  E  E  E     E  E  E  E  E  E  E  E   
--10-----------------------|--8-----7-----7-----5-----|
---------------------------|-----------8--------------|
---7--------7--------7-----|--6--------6--------6-----|
---------7--------7-----7--|--------5--------5-----5--|
------7--------7-----------|-----5--------5-----------|
---------------------------|--------------------------|


  E  E  E  E  E  E  E  E      E  E  E  E  E  E  E  E   
--3-----------------3-----|---------------------------|
--3--------3--5-----3-----|--10-----------8-----------|
--------2--------2-----2--|---7--------7--------7-----|
-----2--------2-----------|---------7--------7-----7--|
--------------------------|------7--------7-----------|
--------------------------|---------------------------|


  E  E  E  E  E  E  E  E     E  E  E  E    E  E  E  E   
--------------------------|--3-----------<>3-----------|
--6-----------------5--6--|--0--------0----------0-----|
--7--------7--------7-----|--------2----------2-----2--|
-----0--7--------7-----7--|-----0----------0-----------|
--------------7-----------|----------------------------|
--------------------------|----------------------------|


     NH                                                       
     E  E  E  E  E  E  E  E        E  E  E  E    E  E  E  E   
--<>12-----------------------|-------------------------------|
-----3--------3--------3-----|--<>10-----------<>8-----------|
-----------2--------2-----2--|-----7--------7----------7-----|
--------2--------2-----------|-----------7----------7-----7--|
-----------------------------|--------7----------7-----------|
-----------------------------|-------------------------------|


                                                                 NH     
    E  E    E   E     E  E    E  E        E  E  E  E    E  E     E  E   
--<>8-----------------------<>8-----|--<>10-----------<>8-----<>19-----|
-------------------<>10-------------|----------------------------------|
----7-----<>9-----------------7-----|-----6--------6-------------6-----|
------------7--10--------7-------7--|-----------5----------5--------5--|
-------7--------------7-------------|--------5----------5--------------|
------------------------------------|----------------------------------|


            NH           NH       NH                         NH          
    E  S    S E    E     E  E     E  E        E  E  E  E     E  E  Q     
--<>5----<>19---------------------------|-------------------------------|
----3------------<>8-----------<>12-----|--<>13-----------<>12----------|
--------------2-------<>19--2--------2--|-----7--------7-----------7----|
-------2-----------------2--------------|-----------7-----------7-------|
----------------------------------------|--------7-----------7----------|
----------------------------------------|-------------------------------|


                                                        ^                 
  E.  E.  E  E.   E.   E     E.   E.  E   E.  E.  E     W                 
--------------------------|--------------------------|--7----------------|
--5---6---8--5------------|--------------------------|--8----------------|
------------------9----7--|--6----7-------7---6------|--7----------------|
----------5---------------|-----------7-----------5--|--9----------------|
--7---8------7------------|-----------0--------------|--7----------------|
-----------------12---10--|--9---10------10---9---3--|--7----------------|


  W                  
--L----------------||
--L----------------||
--L----------------||
--L----------------||
--L----------------||
--L----------------||


Duration Legend
---------------
W - whole
H - half
Q - quarter
E - 8th
S - 16th
T - 32nd
X - 64th
. - note dotted
|-n-| - n-tuplets

Tablature Legend
----------------
L - tied note
x - dead note
g - grace note
(n) - ghost note
> - accentuded note
NH - natural harmonic
AH - artificial harmonic
TH - tapped harmonic
SH - semi harmonic
PH - pitch harmonic
h - hammer on
p - pull off
b - bend
br - bendRelease
pb - preBend
pbr - preBendRelease
brb - bendReleaseBend
\n/ - tremolo bar dip
\n - tremolo bar dive
-/n - tremolo bar Release up
/n\ - tremolo bar inverted dip
/n - tremolo bar return
-\n - tremolo bar Release down
S - shift slide
s - legato slide
/ - slide into from below or out of upwards
\ - slide into from above or out of downwards
~ - vibrato
W - wide vibrato
tr - trill
TP - tremolo picking
T - tapping
S - slap
P - pop
< - fade in
^ - brush up
v - brush down

Login or Register to remove this ad.

4 comments on Running Hell

Awesome Work!

5

Dude I gotta hand it to you... that must have been tough to arrange this but you did it. Wow i like the ending part and it looks difficult too.... but it looks fun to play... to be honest i played to game and that level was hard but i beat it though....
Love the tab... Continue making more!

Huzzah!

5

Huzzah!

I demand to see a recording

5

I demand to see a recording of this awesome arrangement.

I wonder what's harder,

5

I wonder what's harder, beating the level or beating the arrangement.