Plant (Cave Story) Guitar Tab

Submitted: Feb 22, 2013 by JordanVS

5
Average: 5 (2 votes)
Download | Listen
Game: Cave Story
Composer(s): Daisuke Amaya
Style: Arrangement, Fingerstyle

This song is also called Yamashita Farm

AutoScroll: Slow | Medium | Fast
Plant                                           
Yamashita Farm
Cave Story
Daisuke "Pixel" Amaya
JordanVS


*Capo on 2nd fret

*Be aware that the bass notes aren't the root of the chord ;D


     ^                                         ^                                       
     E  E  E  E  E  E     E  E  E  E  E  E     E  E  E  E  E  E     E  E  E  E  E  E   
E||--0--------------0--|--3--------0--------|--------------------|--0-----------------|
B||--1-----------3-----|-----------1--------|--3-----------0--1--|--0--------3--------|
G||--0-----------------|--0-----------------|--0-----------------|-----------0--------|
D||--2--2--2--2--2--2--|--2--2--2--2--2--2--|--0--0--0--0--0--0--|--0--0--0--0--0--0--|
A||--------------------|--------------------|--------------------|--------------------|
E||--------------------|--------------------|--------------------|--------------------|


  ^                                         ^                                       
  E  E  E  E  E  E     E  E  E  E  E  E     E  E  E  E  E  E     E  E  E  E  E  E   
--------------------|--0-----------------|--------------------|--------------------|
--1-----------1--3--|--1-----------1-----|--0-----------------|-----------------0--|
--2-----------------|--------------2-----|--0-----------------|--0-----------2-----|
--------------------|--------------------|--2-----------------|--------------------|
--3--3--3--3--3--3--|--3--3--3--3--3--3--|--2--2--2--2--2--2--|--2--2--2--2--2--2--|
--------------------|--------------------|--------------------|--------------------|


  ^                                         ^                                       
  E  E  E  E  E  E     E  E  E  E  E  E     E  E  E  E  E  E     E  E  E  E  E  E   
--------------------|--------------0--1--|--3-----------------|--L-----------------|
--1-----------------|--L-----------------|--0-----------------|--L-----------1--0--|
--2-----------------|--L-----------------|--0-----------------|--L-----------------|
--3-----------------|--L-----------------|--------------------|--------------------|
--0--0--0--0--0--0--|--0--0--0--0--0--0--|--2--2--2--2--2--2--|--2--2--2--2--2--2--|
--------------------|--------------------|--------------------|--------------------|


  E  E  E  E  E  E     E  E  E  E  E  E     E  E  E  E  E  E     E  E  E  E  E  E   
-----------0--------|-----------0--------|--------------------|--------------------|
--1-----1-----1-----|--------1-----1-----|-----------3--------|-----------3--0-----|
-----0-----------0--|-----0-----------0--|--------4-----4-----|--------4--------0--|
--2-----------------|--2-----------------|-----5-----------5--|-----5--------------|
--------------------|--------------------|--5-----------------|--5-----------------|
--------------------|--------------------|--------------------|--------------------|


  E  E  E  E  E  E     E  E  E  E  E  E     E  E  E  E  E  E     E  E  E  E  E  E   
--0--------------0--|--3--------0--------|--------------------|--0-----------------|
--1-----1-----3-----|--------1-----------|--3-----------0--1--|--0--------3--------|
-----0-----0-----0--|-----0-----0-----0--|--------0-----0-----|--------0-----0-----|
--2-----------2-----|--2-----------2-----|-----0-----0-----0--|-----0-----------0--|
--------------------|--------------------|--2-----------------|--2-----------------|
--------------------|--------------------|--------------------|--------------------|


  E  E  E  E  E  E     E  E  E  E  E  E     E  E  E  E  E  E     E  E  E  E  E  E   
--------------------|--0-----------------|--------------------|--------------------|
--1-----------1--3--|--------------1-----|--0-----L--0--------|-----------------0--|
--------2-----2-----|--2-----2-----2-----|--0-----0-----0-----|--0-----0-----2--0--|
-----2-----2-----2--|-----2-----------2--|-----2-----------2--|-----2--------2-----|
--3-----------------|-----------3--------|--2-----------------|--2--------2--------|
--------------------|--------------------|--------------------|--------------------|


  E  E  E  E  E  E     E  E  E  E  E  E     E  E  E  E  E  E     E  E  E  E  E  E   
--------------------|--------------0--1--|--3-----------------|--------------------|
--1-----------------|--1-----------------|--0--------0--------|--3--0--------1--0--|
--2--------2--------|-----2--------------|--------0-----0-----|--------0-----0-----|
--------3-----3-----|--------3-----3-----|-----0-----------0--|-----------0-----0--|
--0--3-----------3--|-----------3-----3--|--2-----------------|--------------------|
--------------------|--------------------|--------------------|--------------------|


  E  E  E  E  E  E     E  E  E  E  E  E     E  E  E  E  E  E     E  E  E  E  E  E   
-----------0--------|-----------0--------|--------------------|--------------------|
--1-----1-----1-----|--------1-----1-----|--------0--3--0-----|--------0--3--0-----|
-----0-----------0--|-----0-----------0--|-----0-----------0--|-----0-----------0--|
--2-----------------|--2-----------------|--0-----------------|--0-----------------|
--------------------|--------------------|--------------------|-----------2--------|
--------------------|--------------------|--------------------|--3-----------------|


  ^              
  H.             
---------------||
--1------------||
--0------------||
--2------------||
--3------------||
---------------||




Duration Legend
---------------
W - whole
H - half
Q - quarter
E - 8th
. - note dotted


Tablature Legend
----------------
L - tied note
^ - brush up
v - brush down
Login or Register to remove this ad.