On to Grasstown (Cave Story) Guitar Tab

Submitted: Jan 29, 2011 by soundsandstuff (Last updated: Jan 29, 2011)

5
Average: 5 (1 vote)
Download | Listen
Game: Cave Story
Composer(s): Daisuke Amaya
Style: Transcription

Click here for a video example.

AutoScroll: Slow | Medium | Fast
Cave Story - On To Grasstown
Also Known as Doukutsu Monogatari
Platform: PC/Windows, WiiWare, DSiWare
Developer/Publisher: Studio Pixel, Nicalis
Composed by: Daisuke "Pixel" Amaya


Electric Guitar Tab Created By: soundsandstuff channel www.youtube.com/user/soundsandstuff
Completed on: 1/28/11

Standard Tuning
===================================================================================================================
E|----------------------------------------------------|-----------------------------------------------------------|
B|----------------------------------------------------|-----------------------------------------------------------|
G|----------------------------------------------------|-----------------------------------------------------------|
D|-------------7--------------------------------------|-----------------------------------------------------------|
A|-10-------10----10-------10----8-----7-----7-----7--|-8------8-p7--------------8-p7--------------8-p7-----------|
E|----8-----------------8-----------------------10----|--------------10----------------10----------------10-------|


E|----------------------------------------------------|-----------------------------------------------------------|
B|----------------------------------------------------|-----------------------------------------------------------|
G|----------------------------------------------------|--------------7-----------------7-----------------7--------|
D|-------------7--------------------------------------|-----------------------------------------------------------|
A|-10-------10----10-------10----8-----7-----7-----7--|-8------7-/8--------------7-/8--------------7-/8-----------|
E|----8-----------------8-----------------------10----|-----------------------------------------------------------|


E|---------------------------------------|------------------------------------------|
B|---------------------------------------|------------------------------------------|
G|---------------------------------------|------------------------------------------|
D|---------------------------------------|-------5------5--7------------------------|
A|-----------------5------5--7-----------|-7--8------7---------7---5--h7-p5---------|
E|-5--7--8---7--8------8-----------------|-----------------------------------8------|


E|---------------------------------------|-------------------------------------------------|
B|---------------------------------------|-------------------------------------------------|
G|---------------------------------------|-------------------------------------------------|
D|---------------------------------------|-------------------------------------------------|
A|-----------------5------5--7-----------|----7-----8--7--------8--7--------8--7-----------|
E|-5--7--8---7--8------8-----------------|-5-----------------------------------------------|


E|----------------------------------------------------|-----------------------------------------------------------|
B|-------------10-------------------------------------|-----------------------------------------------------------|
G|-12-------12----12-------12----10----9-----9-----9--|-10-----10p9--------------10p9--------------10p9-----------|
D|----10----------------10----------------------12----|--------------12----------------12----------------12-------|
A|----------------------------------------------------|-----------------------------------------------------------|
E|----------------------------------------------------|-----------------------------------------------------------|


E|----------------------------------------------------|--------------10----------------10----------------10-------|
B|-------------10-------------------------------------|-----------------------------------------------------------|
G|-12-------12----12-------12----10----9-----9-----9--|-10-----9-/10-------------9-/10-------------9-/10----------|
D|----10----------------10----------------------12----|-----------------------------------------------------------|
A|----------------------------------------------------|-----------------------------------------------------------|
E|----------------------------------------------------|-----------------------------------------------------------|


E|---------------------------------------|------------------------------------------|
B|---------------------------------------|-------8------8-/10-----------------------|
G|-----------------7------7--9-----------|-9--10-----9---------9--\7--h9-p7---------|
D|-7--9--10--9--10-----10----------------|-----------------------------------10-----|
A|---------------------------------------|------------------------------------------|
E|---------------------------------------|------------------------------------------|


E|---------------------------------------|-------------------------------------------------|
B|---------------------------------------|-------------------------------------------------|
G|-----------------7------7--9-----------|----9-----10-9--------10-9--------10-9-----------|
D|-7--10-10--9--10-----10----------------|-7-----------------------------------------------|
A|---------------------------------------|-------------------------------------------------|
E|---------------------------------------|-------------------------------------------------|


E|-------------17-------------------------------------|-----------------------------------------------------------|
B|-20-------20----20-------20----18----17----17----17-|-18-----18p17-------------18p17-------------18p17----------|
G|----17----------------17----------------------19----|--------------19----------------19----------------19-------|
D|----------------------------------------------------|-----------------------------------------------------------|
A|----------------------------------------------------|-----------------------------------------------------------|
E|----------------------------------------------------|-----------------------------------------------------------|


E|-------------17-------------------------------------|--------------22----------------22----------------22-------|
B|-20-------20----20-------20----18----17----17----17-|-18-----17/18-------------17/18-------------17/18----------|
G|----17----------------17----------------------19----|-----------------------------------------------------------|
D|----------------------------------------------------|-----------------------------------------------------------|
A|----------------------------------------------------|-----------------------------------------------------------|
E|----------------------------------------------------|-----------------------------------------------------------|


E|---------------------------------------|-----------------17-----------------------|
B|---------------------------17----------|-17-18-20--17-20-----17-\15-h17p15--------|
G|----16-17--16-17-19--17-19-------------|-----------------------------------17-----|
D|-19------------------------------------|------------------------------------------|
A|---------------------------------------|------------------------------------------|
E|---------------------------------------|------------------------------------------|


E|---------------------------------------|-------------------------20----20----19--20-22----|
B|---------------------------17----------|----17----18-17-----------------------------------|
G|----17-17--16-17-19--17-19-------------|--------------------------------------------------|
D|-19------------------------------------|-19-----------------------------------------------|
A|---------------------------------------|--------------------------------------------------|
E|---------------------------------------|--------------------------------------------------|


E|-20----19----|-18----17----|-20----19----|-18----17----|---------------------------------------|
B|-20----20----|-18----18----|-20----20----|-18----18----|--------------------------------10-----|
G|-------------|-------------|-------------|-------------|-------9-----------------12------------|
D|-------------|-------------|-------------|-------------|-10-12--------12-----10----------------|
A|-------------|-------------|-------------|-------------|---------------------------------------|
E|-------------|-------------|-------------|-------------|---------------------------------------|


E|-------------------------------------|---------------------------------------|--------10---------------------|
B|-------------------------------------|-----------------------------------10--|----13---------13-----13-------|
G|-9---------------------9-------------|----------9-----------------12---------|-------------------------------|
D|-----10-----12-----10---------12-----|-----------------12--11-10-------------|-------------------------------|
A|-------------------------------------|---------------------------------------|-------------------------------|
E|-------------------------------------|---------------------------------------|-------------------------------|

===================================================================================================================
Thank you for playing!
Login or Register to remove this ad.