Moonsong (Cave Story) Guitar Tab

Submitted: Jul 08, 2011 by yoohere

4.5
Average: 4.5 (2 votes)
Download | Listen
Game: Cave Story
Composer(s): Daisuke Amaya
Style: Arrangement, Fingerstyle

AutoScroll: Slow | Medium | Fast
Moonsong
Cave Story
Composed by Daisuke Amaya
Tabbed by Rory Carter
July 6, 2011

Gtr Standard Tuning (E A D G B E)

  E E E Q  Q  E   E E   E E E E E E   E E E Q  Q  E
|---------------|-------------------|---------------|
|-------1--3----|-------------------|-------1--3----|
|-0---3-------3-|-------------------|-0---3-------3-|
|---1---1-----1-|---1-----1---0-----|---1---1-----1-|
|-3-------------|-3---------3---3-1-|-1-------------|
|---------------|-------------------|---------------|


  E E E E E E E E    E E E Q.   E E E    Q.   Q  E
|------------------|------------------|-------------|
|------------------|-------1----3-----|--4----3-----|
|------------------|-3----------3-----|----------5--|
|---1---1---0---3--|-5----------------|-------------|
|-1-------1---1----|---3-3-3------3-3-|--3----------|
|------------------|-4----------4-----|-------4-----|


  Q.   Q.   Q.     Q.   Q.   E E E E
|-1-------------|-----------------------|
|-3----4----3---|--1--------------------|
|-3----3----3---|--3----3---------------|
|-3----1----3---|--1----0--------0-1----|
|-1---------1---|-------1----1-3--------|
|---------------|-----------------------|


 4/4
  Gtr I
  E E E Q  Q  E   E E   E E E E E E   E E E Q  Q  E
|---------------|-------------------|---------------|
|-------1--3----|-------------------|-------1--3----|
|-0---3-------3-|-------------------|-0---3-------3-|
|---1---1-----1-|---1-----1---0-----|---1---1-----1-|
|-3-------------|-3---------3---3-1-|-1-------------|
|---------------|-------------------|---------------|


  E E E E E E E E    E E E Q.   E E E    Q.   Q  E
|------------------|------------------|-------------|
|------------------|-------1----3-----|--4----3-----|
|------------------|-3----------3-----|----------5--|
|---1---1---0---3--|-5----------------|-------------|
|-1-------1---1----|---3-3-3------3-3-|--3----------|
|------------------|-4----------4-----|-------4-----|


  Q.   Q.   Q.     Q.   Q.
|-1-------------|-------------|
|-3----4----3---|--1----------|
|-3----3----3---|--3----3-----|
|-3----1----3---|--1----0-----|
|-1---------1---|-------1-----|
|---------------|-------------|


  E E E E E E E E Q  E E E E Q  E E E E E E E E Q  E E E E Q
|---------3-1-3-6-3--3-1-3-6-3--1-------1---1-3----1---1-3------|
|---1-3-4-------------------------4-3-4---4-----3----4-----3----|
|-3-----------0----------0----------------------3----------3----|
|-----------------1----------1----------3-------3--3-------3----|
|---------3----------3----------3---------------1----------1----|
|---------------------------------------------------------------|


  E E E E E E E E Q  E E E E Q  E E E E Q E E Q E E Q  E  E  E  E Q   H
|---------3-1-3-6-3--3-1-3-6-3--1-------1---1-3-1-3-6-11-11-11-10-8---8-|
|---1-3-4-------------------------4-3-4---4---1-----------------------8-|
|-3-----------0----------0--------------------------------------------8-|
|-----------------1----------1----------3-----------8----------------10-|
|-1-------3----------3----------3---------------------------------------|
|-----------------------------------------------------------------------|



Duration Legend
---------------
W - whole; H - half; Q - quarter; E - 8th; S - 16th; T - 32nd; X - 64th; a - acciaccatura
+ - note tied to previous; . - note dotted; .. - note double dotted
Uncapitalized letters represent notes that are staccato (1/2 duration)
Irregular groupings are notated above the duration line
Duration letters will always appear directly above the note/fret number it represents the
duration for.  Duration letters with no fret number below them represent rests.  Multi-
bar rests are notated in the form Wxn, where n is the number of bars to rest for.  Low
melody durations appear below the staff

Tablature Legend
----------------
 h   - hammer-on
 p   - pull-off
 b   - bend
 pb  - pre-bend
 r   - bend release (if no number after the r, then release immediately)
 /\  - slide into or out of (from/to "nowhere")
 s   - legato slide
 S   - shift slide
 - natural harmonic
[n]  - artificial harmonic
n(n) - tapped harmonic
 ~   - vibrato
 tr  - trill
 T   - tap
 TP  - trem. picking
 PM  - palm muting
\n/  - tremolo bar dip; n = amount to dip
 \n  - tremolo bar down
 n/  - tremolo bar up
/n\  - tremolo bar inverted dip
 =   - hold bend; also acts as connecting device for hammers/pulls
 <> - volume swell (louder/softer)
 x   - on rhythm slash represents muted slash
 o   - on rhythm slash represents single note slash

Misc Legend
-----------
 |  - bar
||  - double bar
||o - repeat start
o|| - repeat end
*|  - double bar (ending)
 :  - bar (freetime)
 $  - Segno
 &  - Coda
Tempo markers -  = BPM(8/16=s8/s16), where s8 = swing 8ths, s16 = swing 16ths
Login or Register to remove this ad.

1 comment on Moonsong

Seems like this would be

Seems like this would be easier to drop it down a half step and throw a capo on the first fret