Ads

Main Theme (Cave Story) Guitar Tab

Submitted: Feb 17, 2014 by JordanVS

5
Average: 5 (10 votes)
Download | Listen
Game: Cave Story
Composer(s): Daisuke Amaya
Style: Arrangement, Fingerstyle

This song is also called Plantation

AutoScroll: Slow | Medium | Fast
Main Theme                                    
Plantation/Intro
Cave Story
Daisuke "Pixel" Amaya
JordanVS

*Capo on the 6th fret
-2/4
-Tempo : 105


     E  E  E  E     E  E  E  E     E  E  E  E     E  E  E  S. T    E  E  E  E   
E||--------------|--------------|--------------|----------------|--------------|
B||-----3-----3--|-----3-----3--|-----3-----3--|-----3----------|-----3-----3--|
G||--2-----2-----|--1-----1-----|--0-----0-----|-----------0--1-|--2--2--2--2--|
D||--0-----0-----|--0-----0-----|--0-----0-----|--4-----4--2--0-|--0-----0-----|
A||--------------|--------------|--------------|--5-----5-------|--------------|
E||--------------|--------------|--------------|----------------|--------------|


  E  E  E  E     E  E  E  E     E  E  E  E     E  S. T S. T S. T  
--------------|--------------|--1--0--------|--------------------|
-----3-----3--|-----3-----3--|--1--0--3-----|-----0--0-1--3-1--0-|
--1--1--1--1--|--0--0--0--0--|--------2--0--|--2-------2---------|
--0-----0-----|--0-----0-----|--------------|-----2---------2----|
--------------|--------------|--------------|--0-----------------|
--------------|--------------|--------------|--------------------|


  E  E  S. T S. T    E  E  S. T S. T    E  E  S. T E     E  S. T S. T S. T  
------------------|------------------|----------------|--------------------|
--------1--3-1--0-|--------1--1-0----|--0-----3--3-0--|-----0--0-1--3-1--0-|
--2-----2---------|--2-------------2-|-----0----------|--2-------2---------|
-----2-------2----|-----3------------|-----0-------0--|-----2---------2----|
--0---------------|-------------3----|----------------|--0-----------------|
------------------|--1-----1---------|--3-----3-------|--------------------|


  E  E  S. T S. T    E  E  S. T S. T    E  E  S. T E     E  S. T S. T S. T  
------------------|------------------|----------------|--------------------|
--------1--3-1--0-|--------1--1-0----|--0-----3-------|-----0--0-1--3-1--0-|
--2-----2---------|--2-------------2-|-----0-----0-1--|--2-------2---------|
-----2-------2----|-----3------------|-----0----------|-----2---------2----|
--0---------------|-------------3----|----------------|--0-----------------|
------------------|--1-----1---------|--3-----3----4--|--------------------|


  E  E  S. T S. T    E  E  S. T S. T    E  E  S. T E     E  S. T S. T S. T  
------------------|------------------|----------------|--------------------|
--------1--3-1--0-|--------1--1-0----|--0-----3--3-0--|-----0--0-1--3-1--0-|
--2-----2---------|--2-------------2-|-----0----------|--2-------2---------|
-----2-------2----|-----3------------|-----0-------0--|-----2---------2----|
--0---------------|-------------3----|----------------|--0-----------------|
------------------|--1-----1---------|--3-----3-------|--------------------|


  E  E  S. T S. T    E  E  S. T S. T    E  E  S. T E     E  E  S. T S. T  
------------------|------------------|----------------|--0----------0--1-|
--------1--3-1--0-|--------1--1-0----|--0-----3-------|--------3--4------|
--2-----2---------|--2-------------2-|-----0-----0-1--|-----0-------0----|
-----2-------2----|-----3------------|-----0----------|------------------|
--0---------------|-------------3----|----------------|--3-----3---------|
------------------|--1-----1---------|--3-----3----4--|------------------|


  E  E  E  E     E  E  E  E     E  E  E  E     E  S. T S. T S. T  
--3-----5--3--|--3-----5--3--|--1-----------|--------------------|
--------------|--------------|--------1--3--|--4--4--3-4--3-4--3-|
-----0-----0--|-----0-----0--|--------------|--------------------|
--------------|--------------|-----3-----3--|--------------------|
--2-----2-----|--1-----1-----|--0-----0-----|--------------------|
--------------|--------------|--------------|--4-------4---------|


  E  E  E  E     E  S. T S. T S. T    E  E  E  E     E  E  S. T S. T  
--------------|--------------------|--------------|--0----------0--1-|
--4--------4--|--3--3--1-3--1-3--1-|--3-----0-----|--1-----3--4------|
--------------|--------------------|--4-----------|-----0-------0----|
--------------|-----0---------0----|-----0-----0--|------------------|
-----6-----6--|--------------------|--------------|--3-----3---------|
--4-----4-----|--3-------3---------|--3-----3-----|------------------|


  E  E  E  E     E  E  E  E     E  Q    E     E  E  E  E     E  E  E  E   
--3-----5--3--|--3-----5--3--|--8--8-------|--------------|--3-----3--1--|
--------------|--------------|--8--6-------|-----------4--|-----------3--|
-----0-----0--|-----0-----0--|-------------|-----3--5--3--|--5-----5-----|
--------------|--------------|-------------|--------------|--------------|
--2-----2-----|--1-----1-----|--0--8----0--|--------------|-----------3--|
--------------|--------------|-------------|--4-----4-----|--4-----4-----|


			      *Da Capo

  E  E  E  E     E  E  E  E     E  E  E  E     E  E  E  E     E  E  E  E   
--3-----------|--L-----------|--------------|--------------|--------------|
--0-----------|--L-----------|-----3-----3--|-----3-----3--|-----3-----3--|
--------------|--------------|--2--2--2--2--|--1--1--1--1--|--0--0--0--0--|
-----0-----0--|-----0-----0--|--0-----0-----|--0-----0-----|--0-----0-----|
--------------|--------------|--------------|--------------|--------------|
--3-----3-----|--3-----3-----|--------------|--------------|--------------|


  E  E  E  S. T    E  E  E  E     E  E  E  E     E  E  E  E     E  E  Q      
----------------|--------------|--------------|--------------|--1--0-------||
-----3----------|-----3-----3--|-----3-----3--|-----3-----3--|--1--0--3----||
-----------0--1-|--2--2--2--2--|--1--1--1--1--|--0--0--0--0--|--------2----||
--4--4--4--2--0-|--0-----0-----|--0-----0-----|--0-----0-----|--------0----||
--5-----5-------|--------------|--------------|--------------|-------------||
----------------|--------------|--------------|--------------|-------------||




Duration Legend
---------------
W - whole
H - half
Q - quarter
E - 8th
S - 16th
. - note dotted
|-n-|  - n-tuplets


Tablature Legend
----------------
L - tied note
^ - brush up
v - brush down
Login or Register to remove this ad.

3 comments on Main Theme

Awesome tune

5

Just like in actual game. AWESOME.
Thanks for tabs!

Thank you very much!

5

Oh my GOD, I so waited for this!
Thanks, it's perfect!

So bad I can't do arrangements myself...

Very fun to play

5

Very fun to play :)
https://soundcloud.com/mickegitarr/cave-story-plantation-main-theme