Ads

Geothermal (Cave Story) Guitar Tab

Submitted: Aug 11, 2012 by JordanVS (Last updated: Aug 11, 2012)

5
Average: 5 (10 votes)
Download | Listen
Game: Cave Story
Composer(s): Daisuke Amaya
Style: Arrangement, Fingerstyle

AutoScroll: Slow | Medium | Fast
Geothermal                                  
Cave Story
Daisuke Amaya
JordanVS


*Capo on the 3rd

*Tuning is Open Esus11 Tuning
E - A - E - G - B - e
(D tuned up to E)



      E  E  E  E  E  E  E  E     E  E  E  E  E  E  E  S S  
E||---------------------------|---------------------------|
B||---------------------0-----|---------------------------|
G||*--------0-----0-----------|--0-----2-----0-----2------|
E||*-----0-----0-----0-----0--|-----0-----0-----0-----0---|
A||---0-----------------------|---------------------------|
E||---------------------------|-----------------------0-2-|


  E  E  E  E  E  E  E  E     E  E  E  E  E  E  E  E     
--------------------------|---------------------------||
--------------------0-----|---------------------------||
--------0-----0-----------|--2-----0-----------0-----*||
-----0-----0-----0-----0--|-----0-----0--2--0-----0--*||
--------------------------|---------------------------||
--3-----------------------|---------------------------||


  E  E  E  E  E  E  E  E     E  E  E  E  E  E  E  E   
-----------0--0--------7--|--5--------3--2--------3--|
--3-----------------0-----|--------------------------|
--------0-----0-----------|--0-----2-----0-----2-----|
-----0-----0-----0-----0--|-----0-----0-----0-----0--|
--0-----------------------|--------------------------|
--------------------------|-----------------------0--|


  E  E  E  E  E  E  E  E     E  E  E  E  E  E  E  E   
--2-----------------------|--------------------------|
-----------0--3-----0-----|--------------2-----3-----|
--------0-----0-----------|--2-----0-----------0-----|
-----0-----0-----0-----0--|-----0-----0--2--0-----0--|
--------------------------|--------------------------|
--3-----------------------|--------------------------|


  E  E  E  E  E  E  E  E     E  E  E  E  E  E  E  E   
--0-----------------------|--------------------------|
-----------3--2-----0-----|-----------0--0-----2-----|
--------0-----0--------0--|--------2-----0-----2-----|
-----0-----0-----0--------|--2--0-----0-----0-----0--|
--0-----------------------|--------------------------|
--------------------------|-----------------------0--|


  E  E  E  E  E  E  E  E     E  E  E  E  E  E  E  E   
--------------------------|--------------------------|
--3-----------0-----0-----|--------------0-----2-----|
--------0--2--0-----------|--2-----0-----------0-----|
-----0-----0-----0-----0--|-----0-----0--2--0-----0--|
--------------------------|--------------------------|
--3-----------------------|--------------------------|


  E  E  E  E  E  E  E  E     E  E  E  E  E  E  E  E   
-----------0--0--------7--|--5--------3--2--------3--|
--3-----------------0-----|--------------------------|
--------0-----0-----------|--0-----2-----0-----2-----|
-----0-----0-----0-----0--|-----0-----0-----0-----0--|
--0-----------------------|--------------------------|
--------------------------|-----------------------0--|


  E  E  E  E  E  E  E  E     E  E  E  E  E  E  E  E   
--2-----------------------|--------------------------|
-----------0--3-----0-----|--------------2-----3-----|
--------0-----0-----------|--2-----0-----------0-----|
-----0-----0-----0-----0--|-----0-----0--2--0-----0--|
--------------------------|--------------------------|
--3-----------------------|--------------------------|


  E  E  E  E  E  E  E  E     E  E  E  E  E  E  E  E   
--0-----------------------|--------------------------|
-----------3--2-----0-----|-----------0--0-----2-----|
--------0-----0--------0--|--------2-----0-----2-----|
-----0-----0-----0--------|--2--0-----0-----0-----0--|
--0-----------------------|--------------------------|
--------------------------|-----------------------0--|


  E  E  E  E  E  E  E  E     E  E  E  E  E  E  E  E   
--------------------------|--------------------0--2--|
--3-----------0-----0-----|--------------------------|
--------0--2--0-----------|--2-----0-----------0-----|
-----0-----0-----0-----0--|-----0-----0--2--0-----0--|
--------------------------|--------------------------|
--3-----------------------|--------------------------|


  E  E  E  E  E  E  E  E     E  E  E  E  E  E  E  E   
--3--------2--0-----0-----|--------------------0--2--|
--------2-----2-----------|--3-----2-----0-----2-----|
-----2-----2-----2-----2--|-----2-----2-----2-----2--|
--0-----------------------|--------------------------|
--0-----------------------|--------------------------|
--------------------------|-----------------------0--|


  E  E  E  E  E  E  E  E     E  E  E  E  E  E  E  E   
--------------------2-----|--------------------------|
--3-----0--2--3-----------|--3-----0-----2-----3-----|
-----0-----0-----0-----0--|-----0-----0-----0-----0--|
--------------------------|--------------------------|
--------------------------|--------------------------|
--3-----------------------|--------------------------|


  E  E  E  E  E  E  E  E     E  E  E  E  E  E  E  E   
--0-----------------0-----|-----------------0-----7--|
--------2--2--2-----------|--3-----2-----2-----2-----|
-----2-----2--2--2-----2--|-----2--2--2-----2--------|
--0-----------------------|-----------------------5--|
--0-----------------------|--------------------------|
--------------------------|-----------------------0--|


                                                        ^                  
  E  E  E  E  E  E  E  E     E  E  E  E  E  E  E  E     W                  
--5-----------------2-----|--2-----------------------|--0----------------||
--------0-----3-----------|--3-----0-----2-----3-----|--2----------------||
-----0-----0-----0-----0--|-----0-----0-----0-----0--|--2----------------||
--------------------------|--------------------------|--0----------------||
--------------------------|--------------------------|--0----------------||
--3-----------------------|--------------------------|-------------------||




Duration Legend
---------------
W - whole
H - half
Q - quarter
E - 8th
S - 16th
. - note dotted
|-n-|  - n-tuplets


Tablature Legend
----------------
L - tied note
^ - brush up
v - brush down
Login or Register to remove this ad.

6 comments on Geothermal

nice!

5

nice!

Hell yeah!

5

Hell yeah!

it is perfect, really nice

5

it is perfect, really nice job!

Your cave story tabs are

5

Your cave story tabs are especially lovely

Good work!

5

Good work!

This has quickly become one

5

This has quickly become one of my favorite tabs. So beautiful and fun to play. Thanks!
https://soundcloud.com/mickegitarr/cave-story-geothermal