Balcony (Cave Story) Guitar Tab

Submitted: May 21, 2012 by JordanVS

5
Average: 5 (4 votes)
Download | Listen
Game: Cave Story
Composer(s): Daisuke Amaya
Style: Arrangement, Fingerstyle

AutoScroll: Slow | Medium | Fast
Balcony                                 
Cave Story
Daisuke Amaya
JordanVS




     Q    Q    Q    Q       Q    Q    Q    Q     
E||-------0---------0----|-------0---------0----|
B||------------1---------|------------1---------|
G||----------------------|----------------------|
D||--3-------------------|----------------------|
A||----------------------|----------------------|
E||--1-------------------|--1-------------------|


  Q    Q    Q    Q       Q    Q    Q    Q       Q    Q    Q    Q     
-------0---------0----|-------0---------0----|----------------------|
------------1---------|------------1---------|-------3---------3----|
----------------------|----------------------|------------4---------|
--3-------------------|----------------------|--2-------------------|
----------------------|----------------------|----------------------|
--1-------------------|--1-------------------|--3-------------------|


  Q    Q    Q    Q       Q    Q    Q    Q       Q    Q    Q    Q     
----------------------|----------------------|----------------------|
-------3---------3----|-------3---------3----|-------3---------3----|
------------4---------|------------4---------|------------4---------|
----------------------|--2-------------------|----------------------|
----------------------|----------------------|----------------------|
--3-------------------|--3-------------------|--3-------------------|


  E  S S S S S S S S S S S S S S    S S E  S S S S S S S S S S S S  
--0--0-0---0-----3---3-3-0-3-0-0-|--L-0-0----0-----3---3-3-0-3-0-0-|
---------------------------------|---------------------------------|
---------2---2-2---2-------------|---------2---2-2---2-------------|
---------------------------------|---------------------------------|
---------------------------------|---------------------------------|
--1------------------------------|--1------------------------------|


  S S E  S S S S S S S S S S S S    S S E  S S S S S S S S S S S S  
--L-0-0----0-----3---3-3-0-3-0-0-|--L-0-0----0-----3---3-3-0-3-0-0-|
---------------------------------|---------------------------------|
---------2---2-2---2-------------|---------2---2-2---2-------------|
---------------------------------|---------------------------------|
---------------------------------|---------------------------------|
--1------------------------------|--1------------------------------|


  S S S S S S S S S S S S S S S S    E  S S S S S S S S S S S S S S  
----0-----------------------------|---------------------------------|
--3---3-3---3-------------3---3-3-|--L--3-3---3-------------3---3-3-|
----------0---0-0---0-------------|---------0---0-0---0-------------|
------------------0---0-0---0-----|-----------------0---0-0---0-----|
----------------------------------|---------------------------------|
--3-------------------------------|--3------------------------------|

         
                                                            *Da Capo
  E  S S S S S S S S S S S S S S    E  S S S S S S S S S S S S S S   
---------------------------------|---------------------------------||
--L--3-3---3-------------3---3-3-|--L--3-3---3-------------3---3-3-||
---------0---0-0---0-------------|---------0---0-0---0-------------||
-----------------0---0-0---0-----|-----------------0---0-0---0-----||
---------------------------------|---------------------------------||
--3------------------------------|--3------------------------------||




Duration Legend
---------------
W - whole
H - half
Q - quarter
E - 8th
S - 16th

Tablature Legend
----------------
L - tied note
Login or Register to remove this ad.

3 comments on Balcony

good work

good work

Effing Badass

5

This is badass! You are badass!

Good, but. . .

The last note where the lower high part for D ( The 0.) should be changed with 2.