Walking On the Edge (Castlevania) Guitar Tab

Submitted: Aug 03, 2014 by ltm_1988 (Last updated: Aug 14, 2014)

0
Download | Listen
Game: Castlevania
Composer(s): Kinuyo Yamashita
Style: Arrangement, Fingerstyle
Series: Castlevania

This song is also called Stage 4

AutoScroll: Slow | Medium | Fast
Walking On The Edge (Stage 4)
Castlevania 
Kinuyo Yamashita
ltm_1988
7/31/2014

    E   E   E   E   E   E   E   E     E   E   E   E   E   E   E   E
E||---------------------------------|---------------------------------|
B||---------------------------------|---------------------------------|
G||---------------------------------|-5---6---5---6---5---6---5---6---|
D||---------------------------------|---------------------------------|
A||-3---4---3---4---3---4---3---4---|-3---4---3---4---3---4---3---4---|
E||---------------------------------|---------------------------------|

    E   E   E   E   E   E   E   E     E   E   E   E   E   E   E   E
E||-3---4---3---4---3---4---3---4---|-3---4---3---4---3---4---3---4---|
B||---------------------------------|---------------------------------|
G||-5---6---5---6---5---6---5---6---|-5---6---5---6---5---6---5---6---|
D||---------------------------------|---------------------------------|
A||-3---4---3---4---3---4---3---4---|-3---4---3---4---3---4---3---4---|
E||---------------------------------|---------------------------------|

    Q       E   E   Q       Q         Q       Q       Q       Q
E||-0-------------------------------|---------------------------------|
B||-1-------------------------------|---------------------------------|
G||*------------6~------------------|---------------------------------|
D||*------------5~------------------|---------------------------------|
A||-3-------4-------3-------4-------|-3-------4-------3-------4-------|
E||---------------------------------|---------------------------------|

    Q       E   E   Q       Q         E   E   Q       Q       Q
E||-------------------------0-------|-----------------3-------2-------|
B||-------------2-------------------|-----2---------------------------|
G||-5-----------0-----------6-------|-----0-----------5-------4-------|
D||-4-------------------------------|---------------------------------|
A||-3-------4-------3-------4-------|-3-------4-------3-------4-------|
E||---------------------------------|---------------------------------|

    E   E   E   E   E   E   E   E     E   E   E   E   E   E   E   E
E||-------------------------0-------|---------------------------------|
B||-------------2-----------2-------|-----2-------------------2-------|
G||-5-----------0-------------------|-----0-----------5-------0-------|
D||-4-------------------------------|-----------------4---------------|
A||-3---4---3---4---3---4---3---4---|-3---4---3---4---3---4---3---4---|
E||---------------------------------|---------------------------------|

    E   E   E   E   E   E   E   E     E   E   E   E   E   E   E   E
E||-0-----------2-----------3-------|-----2-----------3-------7-------|
B||-2-----------4-----------5-------|-----4-----------5-------8-------|
G||---------------------------------|---------------------------------|
D||---------------------------------|---------------------------------|
A||-3---4---3---4---3---4---3---4---|-3---4---3---4---3---4-----------|
E||---------------------------------|-------------------------8---9---|

    E   E   E   E   E   E   E   E     E   E   E   E   E   E   E   E
E||-6-----------------------8-------|-----9~--------------------------|
B||-8-----------10----------10------|-----9~--------------------------|
G||-------------11------------------|---------------------------------|
D||---------------------------------|---------------------------------|
A||---------------------------------|---------------------------------|
E||-8---9---8---9---8---9---8---9---|-8---9---8---9---8---9---8---9---|

    H               E   Q       E     H               E   Q       E
E||---------------------------------|-0-------------------0-------0---|
B||-2-------------------2-------2---|-2-------------------2-------2---|
G||-2-------------------2-------2---|-0-------------------0-------0---|
D||-2-------------------2-------2---|---------------------------------|
A||---------------------------------|---------------------------------|
E||---------------------------------|---------------------------------|

    H               E   Q       E     H               E   Q       E
E||-9-------------------9-------9---|-12------------------12------12--|
B||-8-------------------8-------8---|-14------------------14------14--|
G||---------------------------------|-0-------------------0-------0---|
D||---------------------------------|---------------------------------|
A||-7-------------------7-------7---|---------------------------------|
E||---------------------------------|---------------------------------|

    E   S S E   S S E   S S E   S S   E   S S E   S S E   S S E   S S
E||-0-------------------------------|---------------------------------|
B||-2---2-2~----2-2-----2-2-----2-2-|-----2-2-----2-2-----2-2-4-------|
G||---------1~----------1-----------|-----1~--------------1-------6-6-|
D||-------------------------4---2---|-------------------------6-------|
A||-4-------4-------4-------4-------|-4-------4-------4-------4-------|
E||---------------------------------|---------------------------------|

    E   S S E   S S E   S S E   S S   E   S S E   S S E   S S E   S S
E||-0-------------------------------|---------------------------------|
B||-2-------2~----------------------|---------------------------------|
G||-----2-2-----2-2-----2-2-----2-2-|-----2-2-----2-2-----2-2-----2-2-|
D||---------5~----------5---4-------|-2-----------5~------------------|
A||-0-------0-------0-------0-------|-0-----4---------0-------0-------|
E||---------------------------------|---------5-----------------------|

    E   S S E   S S E   S S E   S S   E   S S E   S S E   S S E   S S
E||-------------0-------------------|-----2---4---5-------2~----------|
B||-----2---4---2-------2~----------|---------------------------------|
G||---------------------------------|---------------------------------|
D||-----4-4-4---4-4-----4-4-----4-4-|-----4-4-----4-4-----4-4-----4-4-|
A||---------------------------------|-----4---4-----------4~----------|
E||-2-------2-------2-------2-------|-2-------2-------2-------2-------|

    E   S S E   S S E   S S E   S S   S S E   E   E   E   E   E   E      W
E||-4~------------------------------|-----4---3---2---1---0-----------||-0-
B||---------------------------------|-----5---4---3---2---1---4---3---||-2-
G||-5~------------------------------|-------------------------4---3--*||-1-
D||-----6-6-----6-6-----6-6-----6-6-|--------------------------------*||-2-
A||---------------------------------|---------------------------------||-4-
E||-4-------4-------4-------4-------|-4-4-----------------------------||---
Login or Register to remove this ad.