Voyager (Castlevania) Guitar Tab

Submitted: Aug 05, 2014 by ltm_1988 (Last updated: Aug 14, 2014)

4.5
Average: 4.5 (2 votes)
Download | Listen
Game: Castlevania
Composer(s): Kinuyo Yamashita
Style: Arrangement, Fingerstyle
Series: Castlevania

This song is also called Ending

AutoScroll: Slow | Medium | Fast
Voyager (Ending)
Castlevania
Satoe Terashima
ltm_1988
8/4/2014

    E   E   E   Q.          E   E     E   E   E   Q.          E   E
E||---------0---5-------------------|---------0---5-------------------|
B||-------------------------0---1---|-0-------------------------------|
G||-2---2---------------------------|-0-----------------------2---0---|
D||---------------------------------|-7---7---------------------------|
A||---------------------------------|---------------------------------|
E||---------------------------------|---------------------------------|

    E   E   E   H               E     E   E   E   E   H
E||---------0---5-------------------|---------0---5-------------------|
B||---------------------------------|---------------------------------|
G||-2---2---------------------------|-2---2-----------1---------------|
D||-4-------------------------------|-3---------------2---------------|
A||---------------------------------|---------------------------------|
E||---------------------------------|---------------------------------|

    E   E   E   E   Q       E   E     E   E   E   E   Q       E   E
E||---------0---5-------------------|---------0---5-------------------|
B||-------------------------0---1---|-0-------------------------------|
G||-2---2---2-------2-------2-------|-0-------0-------0-------0-------|
D||---------------------------------|-7---7-------------------7---5---|
A||---------------------------------|---------------------------------|
E||---------------------------------|---------------------------------|

    E   E   E   E   Q       Q         E   E   E   E   E   E   E   E
E||---------0---5-------------------|---------0---5-------0---4---7---|
B||---------------------------------|-------------------------0-------|
G||-2-------------------------------|-2---2-----------4---1-------7---|
D||-4---7---4-------4-------4-------|-3-------3-------2-------2-------|
A||-----5---------------------------|-5-------------------------------|
E||---------------------------------|---------------------------------|

    Q       S S S S E   E   E   E     Q       S S S S E   E   Q
E||-5---------------3---1---0-------|-0-------------------------------|
B||-5---------------3---1---0---3---|-6---------------3---------------|
G||-----------------------------2---|-3-------3-3-3-3-3---3---3-------|
D||-3-------3-3-3-3-3---3---3-------|---------------------------------|
A||---------------------------------|---------------------------------|
E||---------------------------------|---------------------------------|

    Q       S S S S E   E   E   E     Q       S S S S E   E   E   S S
E||-3---------------1---------------|---------------------------------|
B||-3---------------1---4---3---1---|-3-------3---------------3-------|
G||---------------------3---2---0---|-0-----------------------2-------|
D||-1-------1-1-1-1-1---1---1-------|-0-------4-----------0---0---0-0-|
A||---------------------------------|---------5-5-5-5-5---------------|
E||---------------------------------|---------------------------------|

    Q       S S S S E   E   E   E     Q       S S S S E   E   E   E
E||-0---------------3---1---0-------|-5---------------3---1---0-------|
B||-6---------------3---1---0---3---|-6---------------5---3---1---1---|
G||-----------------------------2---|---------------------------------|
D||-3-------3-3-3-3-3---3---3-------|---------------------------------|
A||---------------------------------|-3-------3-3-3-3-3---3---3-------|
E||---------------------------------|---------------------------------|

    S S S S S S S S S S S S S S S S   S S S S S S S S S S S S S S S S
E||---------0-----------0-----------|-0-----------0-----------0-------|
B||-----3-----------3-----------3---|---------0-----------0-----------|
G||-2-----------2-----------2-------|-----1-----------1-----------1---|
D||-2-2-2-2-2-2-2-2-2-2-2-2-2-2-2-2-|-2-2-2-2-2-2-2-2-2-2-2-2-2-2-2-2-|
A||---------------------------------|---------------------------------|
E||---------------------------------|---------------------------------|

    H               H                 H               E   E   E   E
E||-5-------------------------------|---------------------------------|
B||---------------------------------|---------------------3---0---3---|
G||-5-------------------------------|---------------------4---5---4---|
D||-7---------------5---------------|-3---------------2---6---7-------|
A||---------------------------------|---------------------------------|
E||---------------------------------|---------------------------------|

    H               H                 H               E   E   E   E
E||-5-------------------------------|---------------------------------|
B||---------------------------------|---------------------3---0---3---|
G||-5-------------------------------|---------------------4---5---4---|
D||-7----------------5--------------|-3---------------2---6---7-------|
A||---------------------------------|---------------------------------|
E||---------------------------------|---------------------------------|

    E   E   E   E   E   E   E   E     E   E   E   E   E   E   E   E
E||-0-------------------------------|---------------------1---0---1---|
B||-1---------------0---------------|---------------------3---1---3---|
G||-2---2---2---2---0---0---0---0---|-2---------------1---------------|
D||---------------------------------|-3---3---3---3---2---2---2---2---|
A||---------------------------------|---------------------------------|
E||---------------------------------|---------------------------------|

    E   E   E   E   E   E   E   E     E   E   E   E   E   E   S S S S
E||-0-------------------------------|---------------------1---0---4---|
B||-1---------------0---------------|---------------------3---1---3---|
G||-2---2---2---2---0---0---0---0---|-2---------------1---------------|
D||---------------------------------|-3---3---3---3---2---2---2-2-2-2-|
A||---------------------------------|---------------------------------|
E||---------------------------------|---------------------------------|

    E   E   E   E   E   E   E   E     E   E   E   E   E   E   E   E
E||-0-------------------------------|-0-------------------------------|
B||---------3-------1-------0-------|---------3-------1-------0-------|
G||-2-------1-------2-------1-------|-2-------1-------2-------1-------|
D||-----2-------2-------2-------2---|-----2-------2-------2-------2---|
A||---------------------------------|---------------------------------|
E||---------------------------------|---------------------------------|

    W                                 Q       E   E   H
E||---------------------------------|---------------------------------||
B||-1-------------------------------|---------------------------------||
G||-2-------------------------------|---------2---2---2---------------||
D||---------------------------------|---------2---2---2---------------||
A||---------------------------------|---------0---0---0---------------||
E||---------------------------------|---------------------------------||
Login or Register to remove this ad.

4 comments on Voyager

I like it, and I'll rate it

4

I like it, and I'll rate it higher if you go through and remove all the tied notes.

They're hard to manage in tablature, and too many of them makes the music almost unreadable. Just put the first note, don't worry about putting the L's or the next note it's supposed to extend to.

I think it's better to use some kind of other symbol if you want to make a note ring out longer, like this:

|-----------------|---------3=======|
|-----------------|-----------------|
|---------0=======|========---------|
|---------0-------|---------0-------|
|------2-----2----|------2-----2----|
|---3-------------|---3-------------|

Or just leave them out cause most notes are held as long as possible anyway.

Great tab other than that!

Agreed, I was thinking it

Agreed, I was thinking it might be hard to read, not sure why I didn't say anything to ltm.

And not only does it make reading the notes difficult, but with every note listed as a sixteenth, the rhythm notatations are kind of useless.

My opinion:The problem isn't

My opinion:

The problem isn't tied notes per se, which are fine in tablature if used judiciously, but that very few of the tied notes in this song have a reason to be there. They'd make sheet music just as unreadable! This song isn't really a constant stream of sixteenth notes, and the way it's written we have no visual indication of what the rhythm really is.

Here's the tab with most ties removed but a few added. If the author wants to indicate which notes are staccato, I'd use another notation for that, at least in tab format.

    E   E   E   E   Q       E   E     E   E   E   E   Q       E   E  
E||---------0---5---L---------------|---------0---5---L---------------|
B||-------------------------0---1---|-0---------------L---------------|
G||-2---2-----------L---------------|-0---------------L-------2---0---|
D||---------------------------------|-7---7-----------L---------------|
A||---------------------------------|---------------------------------|
E||---------------------------------|---------------------------------|


    E   E   E   E   H                 E   E   E   E   H                
E||---------0---5---L---------------|---------0---5-------------------|
B||---------------------------------|---------------------------------|
G||-2---2-----------L---------------|-2---2-----------1---------------|
D||-4---------------L---------------|-3---------------2---------------|
A||---------------------------------|---------------------------------|
E||---------------------------------|---------------------------------|


    E   E   E   E   Q       E   E     E   E   E   E   Q       E   E  
E||---------0---5-------------------|---------0---5-------------------|
B||-------------------------0---1---|-0-------------------------------|
G||-2---2---2-------2-------2-------|-0-------0-------0-------0-------|
D||---------------------------------|-7---7-------------------7---5---|
A||---------------------------------|---------------------------------|
E||---------------------------------|---------------------------------|


    E   E   E   E   Q       Q         E   E   E   E   E   E   E   E   
E||---------0---5-------------------|---------0---5-------0---4---7---|
B||---------------------------------|-------------------------0-------|
G||-2-------------------------------|-2---2-----------4---1-------7---|
D||-4---7---4-------4-------4-------|-3-------3-------2-------2-------|
A||-----5---------------------------|-5-------------------------------|
E||---------------------------------|---------------------------------|


    Q       S S S S E   E   E   E     Q       S S S S E   E   Q      
E||-5---------------3---1---0-------|-0-------------------------------|
B||-5---------------3---1---0---3---|-6---------------3---------------|
G||-----------------------------2---|-3-------3-3-3-3-3---3---3-------|
D||-3-------3-3-3-3-3---3---3-------|---------------------------------|
A||---------------------------------|---------------------------------|
E||---------------------------------|---------------------------------|


    Q       S S S S E   E   E   E     Q       S S S S E   E   E   S S
E||-3---------------1---------------|---------------------------------|
B||-3---------------1---4---3---1---|-3-------3---------------3-------|
G||---------------------3---2---0---|-0-----------------------2-------|
D||-1-------1-1-1-1-1---1---1-------|-0-------4-----------0---0---0-0-|
A||---------------------------------|---------5-5-5-5-5---------------|
E||---------------------------------|---------------------------------|


    Q       S S S S E   E   E   E     Q       S S S S E   E   E   E  
E||-0---------------3---1---0-------|-5---------------3---1---0-------|
B||-6---------------3---1---0---3---|-6---------------5---3---1---1---|
G||-----------------------------2---|---------------------------------|
D||-3-------3-3-3-3-3---3---3-------|---------------------------------|
A||---------------------------------|-3-------3-3-3-3-3---3---3-------|
E||---------------------------------|---------------------------------|


    S S S S S S S S S S S S S S S S   S S S S S S S S S S S S S S S S
E||---------0-----------0-----------|-0-----------0-----------0-------|
B||-----3-----------3-----------3---|---------0-----------0-----------|
G||-2-----------2-----------2-------|-----1-----------1-----------1---|
D||-2-2-2-2-2-2-2-2-2-2-2-2-2-2-2-2-|-2-2-2-2-2-2-2-2-2-2-2-2-2-2-2-2-|
A||---------------------------------|---------------------------------|
E||---------------------------------|---------------------------------|


    H               H                 H               E   E   E   E  
E||-5-------------------------------|---------------------------------|
B||---------------------------------|---------------------3---0---3---|
G||-5-------------------------------|---------------------4---5---4---|
D||-7---------------5---------------|-3---------------2---6---7-------|
A||---------------------------------|---------------------------------|
E||---------------------------------|---------------------------------|


    H               H                 H               E   E   E   E   
E||-5-------------------------------|---------------------------------|
B||---------------------------------|---------------------3---0---3---|
G||-5-------------------------------|---------------------4---5---4---|
D||-7---------------5---------------|-3---------------2---6---7-------|
A||---------------------------------|---------------------------------|
E||---------------------------------|---------------------------------|


    E   E   E   E   E   E   E   E     E   E   E   E   E   E   E   E   
E||-0-------------------------------|---------------------1---0---1---|
B||-1---------------0---------------|---------------------3---1---3---|
G||-2---2---2---2---0---0---0---0---|-2---------------1---------------|
D||---------------------------------|-3---3---3---3---2---2---2---2---|
A||---------------------------------|---------------------------------|
E||---------------------------------|---------------------------------|


    E   E   E   E   E   E   E   E     E   E   E   E   E   E   E   E   
E||-0-------------------------------|---------------------1---0---4---|
B||-1---------------0---------------|---------------------3---1---3---|
G||-2---2---2---2---0---0---0---0---|-2---------------1---------------|
D||---------------------------------|-3---3---3---3---2---2---2-2-2-2-|
A||---------------------------------|---------------------------------|
E||---------------------------------|---------------------------------|


    E   E   E   E   E   E   E   E     E   E   E   E   E   E   E   E   
E||-0-------------------------------|-0-------------------------------|
B||---------3-------1-------0-------|---------3-------1-------0-------|
G||-2-------1-------2-------1-------|-2-------1-------2-------1-------|
D||-----2-------2-------2-------2---|-----2-------2-------2-------2---|
A||---------------------------------|---------------------------------|
E||---------------------------------|---------------------------------|


    W                                 Q       E   E   H                
E||---------------------------------|---------------------------------||
B||-1-------------------------------|---------------------------------||
G||-2-------------------------------|---------2---2---2---------------||
D||---------------------------------|---------2---2---2---------------||
A||---------------------------------|---------0---0---0---------------||
E||---------------------------------|---------------------------------||

A few changes in fingering and I think it'd be a nice tab :-)

a little trick

if you want a quick way to get rid of the ties, go into the notepad exported file and go to find, replace with and replace all the "L" with "-". Just be careful to correct the title and information if it gets affected by this.