Stalker (Castlevania) Guitar Tab

Submitted: Aug 03, 2014 by ltm_1988 (Last updated: Aug 14, 2014)

0
Download | Listen
Game: Castlevania
Composer(s): Kinuyo Yamashita
Style: Arrangement, Fingerstyle
Series: Castlevania

This song is also called Stage 2

AutoScroll: Slow | Medium | Fast
Stalker (Stage 2)
Castlevania
Satoe Terashima
ltm_1988
7/31/2014

    S S S S S S S S S S S S S S S S   S S S S S S S S S S S S S S S S
E||---------------------------------|---------------------------------|
B||---------------------------------|---------------------------------|
G||-7~------7-----5---0-4-------5-7-|-7~------7-----5---0-4-------5-7-|
D||-0---7-------7-------------7---0-|-0---7-------7-------------7---0-|
A||-5-5-5-5-5-5-5-5-5-5-5-5-5-0-3---|-5-5-5-5-5-5-5-5-5-5-5-5-5-0-3---|
E||---------------------------------|---------------------------------|

    E   E   S Q       S E   S E.      E   E   S Q.          S S E.
E||---------1-5-------------3-7-----|---------1-5---------------------|
B||-3---3---------------3-----------|-3---3---------------------------|
G||*--------------------------------|-------------------------2-5-----|
D||*0---0---3-7---------0---5-9-----|-0---0---3-7---------------------|
A||---------------------------------|-------------------------0-3-----|
E||---------------------------------|---------------------------------|

    E   E   S Q       S E   S E.      E   E   S Q.          S S E.
E||---------1-5-------------3-7-----|---------1-5---------------------|
B||-3---3---------------3-----------|-3---3---------------------------|
G||---------------------------------|-------------------------2-5-----|
D||-0---0---3-7---------0---5-9-----|-0---0---3-7---------------------|
A||---------------------------------|-------------------------0-3-----|
E||---------------------------------|---------------------------------|

    E   S S S Q       S E   S S E     S S S S S Q       S E   Q
E||-------5~------------------------|-4-5-4-1~------------------------|
B||-3-----3~------------2---1---0---|-3-5-3---------------------------|
G||-2---------2---------------2-----|-------3~------------------------|
D||-0---0---3-----------0---3-------|---------0-3-------------0-------|
A||---------------------------------|-1---1---------------1-----------|
E||---------------------------------|---------------------------------|

    E   S S S Q       S E   S S E     S S S S S Q       S E   Q
E||-------5~------------------------|-4-5-4-1~------------------------|
B||-3-----3~------------2---1---0---|-3-5-3---------------------------|
G||-2---------2---------------2-----|-------3~------------------------|
D||-0---0---3-----------0---3-------|---------0-3-------------0-------|
A||---------------------------------|-1---1---------------1-----------|
E||---------------------------------|---------------------------------|

    S S S S S S S S S S S S S S S S   S S S S S S S S S S S S S S S S
E||---------------------------------|---------------------------------|
B||-1---1-0---0---------------------|-6-------------------------------|
G||-------------3---2---2-1---1-0---|-------7~------------------------|
D||---------------------------------|---------------------------------|
A||-0-0-0-0-0-0-0-0-0-0-0-0-0-0-0-0-|-8-----5~------------------------|
E||---------------------------------|-6-6-6-5-5-5-4-4-6-6-6-5-5-5-4-4-|

    S S S S S S S S S S S S S S S S   S S S S S S S S S S S S S S S S
E||---------------------------------|---------------------------------|
B||-1---1-0---0---------------------|-6-------------------------------|
G||-------------3---2---2-1---1-0---|-------7~------------------------|
D||---------------------------------|---------------------------------|
A||-0-0-0-0-0-0-0-0-0-0-0-0-0-0-0-0-|-8-----5~------------------------|
E||---------------------------------|-6-6-6-5-5-5-4-4-6-6-6-5-5-5-4-4-|

    S S S E   E.    H                 S S S E   E.    H               x3 W
E||---------------------------------|---------------------------------||-2-
B||-----3-3---3-----2---------------|-----3-3---3-----2---------------||-3-
G||-----4-4---4-----2---------------|-----4-4---4-----2--------------*||-2-
D||-----6---------------------------|-----6--------------------------*||-0-
A||-----------------0---------------|-----------------0---------------||---
E||-4-4---4---4---------------------|-4-4---4---4---------------------||---
Login or Register to remove this ad.