Ads

Poison Mind (Castlevania) Bass/Guitar Tab

Submitted: Nov 21, 2014 by BonePillar

3
Average: 3 (2 votes)
Download | Listen
Game: Castlevania
Composer(s): Kinuyo Yamashita
Style: 2 or more instruments, Transcription
Series: Castlevania

AutoScroll: Slow | Medium | Fast
Poison Mind


Lead

|----15----15----15----15-|----15-13-15----15-13-15-|----15----15----15----15-|----15----15----15----15-|
|-13----16----13----16----|-15----------15----------|-13----16----13----16----|-13----16----13----16----|
|-------------------------|-------------------------|-------------------------|-------------------------|
|-------------------------|-------------------------|-------------------------|-------------------------|
|-------------------------|-------------------------|-------------------------|-------------------------|
|-------------------------|-------------------------|-------------------------|-------------------------|


|----16-13-16----16-13-16-|----15----15----15----15-|----15-13-15----15-13-15-|----15-13-15----15-13-15-|
|-13----------13----------|-13----16----13----16----|-15----------15----------|-13----------13----------|
|-------------------------|-------------------------|-------------------------|-------------------------|
|-------------------------|-------------------------|-------------------------|-------------------------|
|-------------------------|-------------------------|-------------------------|-------------------------|
|-------------------------|-------------------------|-------------------------|-------------------------|


Harmony

|-15-15-15-15-|
|-------------|
|-------------|
|-------------|
|-------------|
|-------------|



Bass

|-----------------|
|-------1-3-5-----|
|-3-2-3-------2-3-|
|-----------------|
Login or Register to remove this ad.